  0
SECTION
  2
HEADER
  9
$ACADVER
  1
AC1009
  9
$DWGCODEPAGE
  3
ansi_1252
  9
$INSBASE
 10
0.0
 20
0.0
 30
0.0
  9
$EXTMIN
 10
1.000000000000000E+20
 20
1.000000000000000E+20
 30
1.000000000000000E+20
  9
$EXTMAX
 10
-1.000000000000000E+20
 20
-1.000000000000000E+20
 30
-1.000000000000000E+20
  9
$LIMMIN
 10
0.0
 20
0.0
  9
$LIMMAX
 10
12.0
 20
9.0
  9
$ORTHOMODE
 70
     0
  9
$REGENMODE
 70
     1
  9
$FILLMODE
 70
     1
  9
$QTEXTMODE
 70
     0
  9
$MIRRTEXT
 70
     1
  9
$DRAGMODE
 70
     2
  9
$LTSCALE
 40
1.0
  9
$OSMODE
 70
    37
  9
$ATTMODE
 70
     1
  9
$TEXTSIZE
 40
2.5
  9
$TRACEWID
 40
0.05
  9
$TEXTSTYLE
  7
STANDARD
  9
$CLAYER
  8
0
  9
$CELTYPE
  6
BYLAYER
  9
$CECOLOR
 62
   178
  9
$DIMSCALE
 40
1.0
  9
$DIMASZ
 40
2.5
  9
$DIMEXO
 40
0.625
  9
$DIMDLI
 40
0.38
  9
$DIMRND
 40
0.01
  9
$DIMDLE
 40
0.0
  9
$DIMEXE
 40
1.25
  9
$DIMTP
 40
0.0
  9
$DIMTM
 40
0.0
  9
$DIMTXT
 40
2.5
  9
$DIMCEN
 40
0.09
  9
$DIMTSZ
 40
0.0
  9
$DIMTOL
 70
     0
  9
$DIMLIM
 70
     0
  9
$DIMTIH
 70
     1
  9
$DIMTOH
 70
     1
  9
$DIMSE1
 70
     0
  9
$DIMSE2
 70
     0
  9
$DIMTAD
 70
     0
  9
$DIMZIN
 70
     8
  9
$DIMBLK
  1

  9
$DIMASO
 70
     1
  9
$DIMSHO
 70
     1
  9
$DIMPOST
  1

  9
$DIMAPOST
  1

  9
$DIMALT
 70
     1
  9
$DIMALTD
 70
     2
  9
$DIMALTF
 40
25.4
  9
$DIMLFAC
 40
1.0
  9
$DIMTOFL
 70
     0
  9
$DIMTVP
 40
0.0
  9
$DIMTIX
 70
     0
  9
$DIMSOXD
 70
     0
  9
$DIMSAH
 70
     0
  9
$DIMBLK1
  1

  9
$DIMBLK2
  1

  9
$DIMSTYLE
  2
STANDARD
  9
$DIMCLRD
 70
   178
  9
$DIMCLRE
 70
   178
  9
$DIMCLRT
 70
   178
  9
$DIMTFAC
 40
1.0
  9
$DIMGAP
 40
0.625
  9
$LUNITS
 70
     2
  9
$LUPREC
 70
     4
  9
$SKETCHINC
 40
0.1
  9
$FILLETRAD
 40
0.5
  9
$AUNITS
 70
     0
  9
$AUPREC
 70
     2
  9
$MENU
  1
.
  9
$ELEVATION
 40
0.0
  9
$PELEVATION
 40
0.0
  9
$THICKNESS
 40
0.0
  9
$LIMCHECK
 70
     0
  9
$CHAMFERA
 40
0.5
  9
$CHAMFERB
 40
0.5
  9
$SKPOLY
 70
     0
  9
$TDCREATE
 40
2456842.511273136
  9
$TDUPDATE
 40
2456842.511273136
  9
$TDINDWG
 40
0.0000000116
  9
$TDUSRTIMER
 40
0.0000000116
  9
$USRTIMER
 70
     1
  9
$ANGBASE
 50
0.0
  9
$ANGDIR
 70
     0
  9
$PDMODE
 70
     0
  9
$PDSIZE
 40
0.0
  9
$PLINEWID
 40
0.0
  9
$COORDS
 70
     1
  9
$SPLFRAME
 70
     0
  9
$SPLINETYPE
 70
     6
  9
$SPLINESEGS
 70
     8
  9
$ATTDIA
 70
     0
  9
$ATTREQ
 70
     1
  9
$HANDLING
 70
     1
  9
$HANDSEED
  5
700
  9
$SURFTAB1
 70
     6
  9
$SURFTAB2
 70
     6
  9
$SURFTYPE
 70
     6
  9
$SURFU
 70
     6
  9
$SURFV
 70
     6
  9
$UCSNAME
  2

  9
$UCSORG
 10
0.0
 20
0.0
 30
0.0
  9
$UCSXDIR
 10
1.0
 20
0.0
 30
0.0
  9
$UCSYDIR
 10
0.0
 20
1.0
 30
0.0
  9
$PUCSNAME
  2

  9
$PUCSORG
 10
0.0
 20
0.0
 30
0.0
  9
$PUCSXDIR
 10
1.0
 20
0.0
 30
0.0
  9
$PUCSYDIR
 10
0.0
 20
1.0
 30
0.0
  9
$USERI1
 70
     0
  9
$USERI2
 70
     0
  9
$USERI3
 70
     0
  9
$USERI4
 70
     0
  9
$USERI5
 70
     0
  9
$USERR1
 40
0.0
  9
$USERR2
 40
0.0
  9
$USERR3
 40
0.0
  9
$USERR4
 40
0.0
  9
$USERR5
 40
0.0
  9
$WORLDVIEW
 70
     1
  9
$SHADEDGE
 70
     3
  9
$SHADEDIF
 70
    70
  9
$TILEMODE
 70
     1
  9
$MAXACTVP
 70
    64
  9
$PLIMCHECK
 70
     0
  9
$PEXTMIN
 10
1.000000000000000E+20
 20
1.000000000000000E+20
 30
1.000000000000000E+20
  9
$PEXTMAX
 10
-1.000000000000000E+20
 20
-1.000000000000000E+20
 30
-1.000000000000000E+20
  9
$PLIMMIN
 10
0.0
 20
0.0
  9
$PLIMMAX
 10
297.0
 20
210.0
  9
$UNITMODE
 70
     0
  9
$VISRETAIN
 70
     1
  9
$PLINEGEN
 70
     0
  9
$PSLTSCALE
 70
     1
  0
ENDSEC
  0
SECTION
  2
TABLES
  0
TABLE
  2
VPORT
 70
     1
  0
VPORT
  2
*ACTIVE
 70
     0
 10
0.0
 20
0.0
 11
1.0
 21
1.0
 12
10.42990654205607
 22
4.5
 13
0.0
 23
0.0
 14
0.5
 24
0.5
 15
0.5
 25
0.5
 16
0.0
 26
0.0
 36
1.0
 17
0.0
 27
0.0
 37
0.0
 40
9.0
 41
1.972972972850329
 42
50.0
 43
0.0
 44
0.0
 50
0.0
 51
0.0
 71
     0
 72
   100
 73
     1
 74
     3
 75
     0
 76
     0
 77
     0
 78
     0
  0
ENDTAB
  0
TABLE
  2
LTYPE
 70
    19
  0
LTYPE
  2
CONTINUOUS
 70
     0
  3
Solid line
 72
    65
 73
     0
 40
0.0
  0
LTYPE
  2
BORDER
 70
     0
  3

 72
    65
 73
     6
 40
42.0
 49
12.0
 49
-6.0
 49
12.0
 49
-5.95
 49
0.1
 49
-5.95
  0
LTYPE
  2
BORDER2
 70
     0
  3

 72
    65
 73
     6
 40
21.0
 49
6.0
 49
-3.0
 49
6.0
 49
-2.95
 49
0.1
 49
-2.95
  0
LTYPE
  2
BORDERX2
 70
     0
  3

 72
    65
 73
     6
 40
84.0
 49
24.0
 49
-12.0
 49
24.0
 49
-11.95
 49
0.1
 49
-11.95
  0
LTYPE
  2
CENTER
 70
     0
  3

 72
    65
 73
     4
 40
50.0
 49
32.0
 49
-6.0
 49
6.0
 49
-6.0
  0
LTYPE
  2
CENTER2
 70
     0
  3

 72
    65
 73
     4
 40
25.0
 49
16.0
 49
-3.0
 49
3.0
 49
-3.0
  0
LTYPE
  2
CENTERX2
 70
     0
  3

 72
    65
 73
     4
 40
100.0
 49
64.0
 49
-12.0
 49
12.0
 49
-12.0
  0
LTYPE
  2
DASHDOT
 70
     0
  3

 72
    65
 73
     4
 40
24.0
 49
12.0
 49
-5.95
 49
0.1
 49
-5.95
  0
LTYPE
  2
DASHDOT2
 70
     0
  3

 72
    65
 73
     4
 40
12.0
 49
6.0
 49
-2.95
 49
0.1
 49
-2.95
  0
LTYPE
  2
DASHDOTX2
 70
     0
  3

 72
    65
 73
     4
 40
48.0
 49
24.0
 49
-11.95
 49
0.1
 49
-11.95
  0
LTYPE
  2
DASHED
 70
     0
  3

 72
    65
 73
     2
 40
18.0
 49
12.0
 49
-6.0
  0
LTYPE
  2
DASHED2
 70
     0
  3

 72
    65
 73
     2
 40
9.0
 49
6.0
 49
-3.0
  0
LTYPE
  2
DASHEDX2
 70
     0
  3

 72
    65
 73
     2
 40
36.0
 49
24.0
 49
-12.0
  0
LTYPE
  2
DIVIDE
 70
     0
  3

 72
    65
 73
     6
 40
30.0
 49
12.0
 49
-5.9
 49
0.15
 49
-5.9
 49
0.15
 49
-5.9
  0
LTYPE
  2
DIVIDE2
 70
     0
  3

 72
    65
 73
     6
 40
15.0
 49
6.0
 49
-2.9
 49
0.15
 49
-2.9
 49
0.15
 49
-2.9
  0
LTYPE
  2
DIVIDEX2
 70
     0
  3

 72
    65
 73
     6
 40
60.0
 49
24.0
 49
-11.9
 49
0.15
 49
-11.9
 49
0.15
 49
-11.9
  0
LTYPE
  2
DOT
 70
     0
  3

 72
    65
 73
     2
 40
6.3
 49
0.1
 49
-6.2
  0
LTYPE
  2
DOT2
 70
     0
  3

 72
    65
 73
     2
 40
3.2
 49
0.1
 49
-3.1
  0
LTYPE
  2
DOTX2
 70
     0
  3

 72
    65
 73
     2
 40
12.5
 49
0.1
 49
-12.4
  0
ENDTAB
  0
TABLE
  2
LAYER
 70
     7
  0
LAYER
  2
0
 70
     0
 62
     7
  6
CONTINUOUS
  0
LAYER
  2
BOARD
 70
     0
 62
     7
  6
CONTINUOUS
  0
LAYER
  2
ACCESOIRES
 70
     0
 62
     7
  6
CONTINUOUS
  0
LAYER
  2
REMARKS
 70
     0
 62
     7
  6
CONTINUOUS
  0
LAYER
  2
HOLES
 70
     0
 62
     7
  6
CONTINUOUS
  0
LAYER
  2
MILLING
 70
     0
 62
     7
  6
CONTINUOUS
  0
LAYER
  2
MILLING-CENTER
 70
     0
 62
     7
  6
CONTINUOUS
  0
ENDTAB
  0
TABLE
  2
STYLE
 70
     3
  0
STYLE
  2
STANDARD
 70
     0
 40
0.0
 41
1.0
 50
0.0
 71
     0
 42
2.5
  3
txt
  4

  0
STYLE
  2
TEXTSTYLE0
 70
     0
 40
0.0
 41
1.0
 50
0.0
 71
     0
 42
2.5
  3
Standard
  4

  0
STYLE
  2
TEXTSTYLE1
 70
     0
 40
0.0
 41
1.0
 50
0.0
 71
     0
 42
2.5
  3
Standard
  4

  0
ENDTAB
  0
TABLE
  2
VIEW
 70
     0
  0
ENDTAB
  0
TABLE
  2
UCS
 70
     0
  0
ENDTAB
  0
TABLE
  2
APPID
 70
     2
  0
APPID
  2
ACAD
 70
     0
  0
APPID
  2
QCAD
 70
     0
  0
ENDTAB
  0
TABLE
  2
DIMSTYLE
 70
     2
  0
DIMSTYLE
  2
STANDARD
 70
     0
  3

  4

  5

  6

  7

 40
1.0
 41
0.18
 42
0.0625
 43
0.38
 44
0.18
 45
0.0
 46
0.0
 47
0.0
 48
0.0
140
0.18
141
0.09
142
0.0
143
25.4
144
1.0
145
0.0
146
1.0
147
0.09
 71
     0
 72
     0
 73
     1
 74
     1
 75
     0
 76
     0
 77
     0
 78
     0
170
     0
171
     2
172
     0
173
     0
174
     0
175
     0
176
     0
177
     0
178
     0
  0
DIMSTYLE
  2
QCADDIMSTYLE
 70
     0
  3

  4

  5

  6

  7

 40
1.0
 41
2.5
 42
0.625
 43
0.38
 44
1.25
 45
0.0
 46
0.0
 47
0.0
 48
0.0
140
2.5
141
0.09
142
0.0
143
25.4
144
1.0
145
0.0
146
1.0
147
0.625
 71
     0
 72
     0
 73
     0
 74
     1
 75
     0
 76
     0
 77
     1
 78
     0
170
     0
171
     2
172
     0
173
     0
174
     0
175
     0
176
     0
177
     0
178
     0
  0
ENDTAB
  0
ENDSEC
  0
SECTION
  2
BLOCKS
  0
BLOCK
  8
0
  2
$MODEL_SPACE
 70
     0
 10
0.0
 20
0.0
 30
0.0
  3
$MODEL_SPACE
  1

  0
ENDBLK
  5
661
  8
0
  0
BLOCK
 67
     1
  8
0
  2
$PAPER_SPACE
 70
     0
 10
0.0
 20
0.0
 30
0.0
  3
$PAPER_SPACE
  1

  0
ENDBLK
  5
65D
 67
     1
  8
0
  0
ENDSEC
  0
SECTION
  2
ENTITIES
  0
LINE
  5
4A
  8
0
 10
15.50000000000017
 20
5.999999999999977
 30
0.0
 11
259.5000000000002
 21
5.999999999999901
 31
0.0
  0
LINE
  5
51
  8
0
 10
15.50000000000017
 20
161.9999999999999
 30
0.0
 11
259.5000000000002
 21
161.9999999999999
 31
0.0
  0
LINE
  5
52
  8
0
 10
11.50000000000017
 20
157.9999999999999
 30
0.0
 11
11.50000000000017
 21
9.999999999999972
 31
0.0
  0
LINE
  5
53
  8
0
 10
263.5000000000002
 20
9.999999999999902
 30
0.0
 11
263.5000000000002
 21
157.9999999999999
 31
0.0
  0
TEXT
  5
54
  8
REMARKS
  6
CONTINUOUS
 10
120.8153482739801
 20
106.748746418338
 30
0.0
 40
5.0
  1
Boden:
  7
TEXTSTYLE0
  0
LINE
  5
58
  8
BOARD
 10
19.50000000000017
 20
13.99999999999994
 30
0.0
 11
255.5000000000002
 21
13.99999999999994
 31
0.0
  0
LINE
  5
59
  8
BOARD
 10
255.5000000000002
 20
13.99999999999994
 30
0.0
 11
255.5000000000002
 21
153.9999999999999
 31
0.0
  0
LINE
  5
5A
  8
BOARD
 10
255.5000000000002
 20
153.9999999999999
 30
0.0
 11
19.50000000000017
 21
153.9999999999999
 31
0.0
  0
LINE
  5
5B
  8
BOARD
 10
19.50000000000017
 20
153.9999999999999
 30
0.0
 11
19.50000000000017
 21
13.99999999999994
 31
0.0
  0
CIRCLE
  5
AD
  8
HOLES
 10
25.50000000000017
 20
28.99999999999991
 30
0.0
 40
1.25
  0
CIRCLE
  5
AE
  8
HOLES
 10
114.5000000000002
 20
124.4999999999999
 30
0.0
 40
1.25
  0
CIRCLE
  5
AF
  8
HOLES
 10
110.5000000000002
 20
65.99999999999991
 30
0.0
 40
1.25
  0
CIRCLE
  5
B0
  8
HOLES
 10
166.5000000000002
 20
133.9999999999999
 30
0.0
 40
1.25
  0
CIRCLE
  5
B1
  8
HOLES
 10
213.5000000000002
 20
133.9999999999999
 30
0.0
 40
1.25
  0
CIRCLE
  5
B2
  8
HOLES
 10
47.5
 20
124.0
 30
0.0
 40
1.25
  0
CIRCLE
  5
B3
  8
HOLES
 10
203.5000000000002
 20
20.99999999999991
 30
0.0
 40
1.25
  0
ARC
  5
5F4
  8
0
 10
15.50000000000017
 20
9.999999999999977
 30
0.0
 40
4.0
 50
180.0
 51
269.9999999999999
  0
ARC
  5
5F5
  8
0
 10
15.50000000000017
 20
157.9999999999999
 30
0.0
 40
4.0
 50
90.0
 51
180.0
  0
ARC
  5
5F6
  8
0
 10
259.5000000000002
 20
157.9999999999999
 30
0.0
 40
4.0
 50
0.0
 51
90.0
  0
ARC
  5
5F7
  8
0
 10
259.5000000000002
 20
9.999999999999902
 30
0.0
 40
4.0
 50
270.0
 51
0.0
  0
CIRCLE
  5
5F9
  8
HOLES
 10
15.37867965644053
 20
9.878679656440298
 30
0.0
 40
1.25
  0
CIRCLE
  5
5FA
  8
HOLES
 10
259.6213203435599
 20
9.878679656440298
 30
0.0
 40
1.25
  0
CIRCLE
  5
5FB
  8
HOLES
 10
259.6213203435599
 20
158.1213203435595
 30
0.0
 40
1.25
  0
CIRCLE
  5
5FC
  8
HOLES
 10
15.37867965644053
 20
158.1213203435595
 30
0.0
 40
1.25
  0
TEXT
  5
601
  8
REMARKS
  6
CONTINUOUS
 10
34.4802143858948
 20
137.5894109396913
 30
0.0
 40
3.0
  1
Alle Bohrungen: Durchgangslöcher mit M3 Gewinde.
  7
TEXTSTYLE1
  0
LINE
  5
62C
  8
MILLING-CENTER
 10
257.0000000000002
 20
154.75
 30
0.0
 11
18.00000000000017
 21
154.7499999999999
 31
0.0
  0
LINE
  5
62D
  8
MILLING-CENTER
 10
256.2500000000002
 20
153.9999999999999
 30
0.0
 11
256.2500000000002
 21
13.99999999999994
 31
0.0
  0
LINE
  5
62E
  8
MILLING-CENTER
 10
257.0000000000002
 20
13.24999999999994
 30
0.0
 11
18.00000000000017
 21
13.24999999999983
 31
0.0
  0
LINE
  5
62F
  8
MILLING-CENTER
 10
18.75000000000017
 20
13.99999999999969
 30
0.0
 11
18.75000000000017
 21
153.9999999999999
 31
0.0
  0
ARC
  5
630
  8
MILLING-CENTER
 10
18.00000000000017
 20
153.9999999999999
 30
0.0
 40
0.75
 50
0.0
 51
90.0
  0
ARC
  5
631
  8
MILLING-CENTER
 10
18.00000000000017
 20
13.99999999999969
 30
0.0
 40
0.75
 50
270.0
 51
0.0
  0
ARC
  5
632
  8
MILLING-CENTER
 10
257.0000000000002
 20
13.99999999999994
 30
0.0
 40
0.75
 50
180.0
 51
270.0
  0
ARC
  5
633
  8
MILLING-CENTER
 10
257.0000000000002
 20
153.9999999999999
 30
0.0
 40
0.7500000000001137
 50
90.0
 51
180.0
  0
LINE
  5
635
  8
MILLING
 10
255.5000000000002
 20
153.9999999999999
 30
0.0
 11
19.50000000000017
 21
153.9999999999999
 31
0.0
  0
LINE
  5
636
  8
MILLING
 10
257.0000000000002
 20
155.4999999999999
 30
0.0
 11
18.00000000000017
 21
155.4999999999999
 31
0.0
  0
LINE
  5
637
  8
MILLING
 10
19.50000000000017
 20
13.99999999999994
 30
0.0
 11
255.5000000000002
 21
13.99999999999994
 31
0.0
  0
LINE
  5
638
  8
MILLING
 10
18.00000000000017
 20
12.49999999999994
 30
0.0
 11
257.0000000000002
 21
12.49999999999994
 31
0.0
  0
LINE
  5
639
  8
MILLING
 10
19.50000000000017
 20
153.9999999999999
 30
0.0
 11
19.50000000000017
 21
13.99999999999991
 31
0.0
  0
LINE
  5
63A
  8
MILLING
 10
18.00000000000017
 20
153.9999999999999
 30
0.0
 11
18.00000000000017
 21
14.00000000000134
 31
0.0
  0
LINE
  5
63B
  8
MILLING
 10
255.5000000000002
 20
13.99999999999994
 30
0.0
 11
255.5000000000002
 21
153.9999999999999
 31
0.0
  0
LINE
  5
63C
  8
MILLING
 10
257.0000000000002
 20
13.99999999999994
 30
0.0
 11
257.0000000000002
 21
154.0000000000017
 31
0.0
  0
ARC
  5
63D
  8
MILLING
 10
18.00000000000017
 20
154.7499999999999
 30
0.0
 40
0.75
 50
90.0
 51
270.0
  0
ARC
  5
63E
  8
MILLING
 10
18.00000000000017
 20
13.24999999999994
 30
0.0
 40
0.75
 50
90.0
 51
270.0
  0
ARC
  5
63F
  8
MILLING
 10
257.0000000000002
 20
13.24999999999994
 30
0.0
 40
0.75
 50
270.0
 51
89.99999999999999
  0
ARC
  5
640
  8
MILLING
 10
257.0000000000002
 20
154.7499999999999
 30
0.0
 40
0.75
 50
270.0
 51
89.99999999999999
  0
ENDSEC
  0
EOF
