  0
SECTION
  2
HEADER
  9
$ACADVER
  1
AC1024
  9
$ACADMAINTVER
 70
     6
  9
$DWGCODEPAGE
  3
ANSI_1252
  9
$INSBASE
 10
0.0
 20
0.0
 30
0.0
  9
$EXTMIN
 10
1.000000000000000E+20
 20
1.000000000000000E+20
 30
1.000000000000000E+20
  9
$EXTMAX
 10
-1.000000000000000E+20
 20
-1.000000000000000E+20
 30
-1.000000000000000E+20
  9
$LIMMIN
 10
0.0
 20
0.0
  9
$LIMMAX
 10
12.0
 20
9.0
  9
$ORTHOMODE
 70
     0
  9
$REGENMODE
 70
     1
  9
$FILLMODE
 70
     1
  9
$QTEXTMODE
 70
     0
  9
$MIRRTEXT
 70
     1
  9
$LTSCALE
 40
1.0
  9
$ATTMODE
 70
     1
  9
$TEXTSIZE
 40
2.5
  9
$TRACEWID
 40
0.05
  9
$TEXTSTYLE
  7
Standard
  9
$CLAYER
  8
0
  9
$CELTYPE
  6
ByLayer
  9
$CECOLOR
 62
    18
  9
$CELTSCALE
 40
1.0
  9
$DISPSILH
 70
     0
  9
$DIMSCALE
 40
1.0
  9
$DIMASZ
 40
2.5
  9
$DIMEXO
 40
0.625
  9
$DIMDLI
 40
0.38
  9
$DIMRND
 40
0.01
  9
$DIMDLE
 40
0.0
  9
$DIMEXE
 40
1.25
  9
$DIMTP
 40
0.0
  9
$DIMTM
 40
0.0
  9
$DIMTXT
 40
2.5
  9
$DIMCEN
 40
0.09
  9
$DIMTSZ
 40
0.0
  9
$DIMTOL
 70
     0
  9
$DIMLIM
 70
     0
  9
$DIMTIH
 70
     1
  9
$DIMTOH
 70
     1
  9
$DIMSE1
 70
     0
  9
$DIMSE2
 70
     0
  9
$DIMTAD
 70
     0
  9
$DIMZIN
 70
     8
  9
$DIMBLK
  1

  9
$DIMASO
 70
     1
  9
$DIMSHO
 70
     1
  9
$DIMPOST
  1

  9
$DIMAPOST
  1

  9
$DIMALT
 70
     1
  9
$DIMALTD
 70
     2
  9
$DIMALTF
 40
25.4
  9
$DIMLFAC
 40
1.0
  9
$DIMTOFL
 70
     0
  9
$DIMTVP
 40
0.0
  9
$DIMTIX
 70
     0
  9
$DIMSOXD
 70
     0
  9
$DIMSAH
 70
     0
  9
$DIMBLK1
  1

  9
$DIMBLK2
  1

  9
$DIMSTYLE
  2
Standard
  9
$DIMCLRD
 70
    18
  9
$DIMCLRE
 70
    18
  9
$DIMCLRT
 70
    18
  9
$DIMTFAC
 40
1.0
  9
$DIMGAP
 40
0.625
  9
$DIMJUST
 70
     0
  9
$DIMSD1
 70
     0
  9
$DIMSD2
 70
     0
  9
$DIMTOLJ
 70
     1
  9
$DIMTZIN
 70
     0
  9
$DIMALTZ
 70
     0
  9
$DIMALTTZ
 70
     0
  9
$DIMUPT
 70
     0
  9
$DIMDEC
 70
     4
  9
$DIMTDEC
 70
     4
  9
$DIMALTU
 70
     2
  9
$DIMALTTD
 70
     2
  9
$DIMTXSTY
  7
Standard
  9
$DIMAUNIT
 70
     0
  9
$DIMADEC
 70
     2
  9
$DIMALTRND
 40
0.0
  9
$DIMAZIN
 70
     0
  9
$DIMDSEP
 70
    46
  9
$DIMATFIT
 70
     3
  9
$DIMFRAC
 70
     0
  9
$DIMLDRBLK
  1

  9
$DIMLUNIT
 70
     2
  9
$DIMLWD
 70
    -2
  9
$DIMLWE
 70
    -2
  9
$DIMTMOVE
 70
     0
  9
$DIMFXL
 40
1.0
  9
$DIMFXLON
 70
     0
  9
$DIMJOGANG
 40
0.7853981633974483
  9
$DIMTFILL
 70
     0
  9
$DIMTFILLCLR
 70
     0
  9
$DIMARCSYM
 70
     0
  9
$DIMLTYPE
  6

  9
$DIMLTEX1
  6

  9
$DIMLTEX2
  6

  9
$DIMTXTDIRECTION
 70
     0
  9
$LUNITS
 70
     2
  9
$LUPREC
 70
     4
  9
$SKETCHINC
 40
0.1
  9
$FILLETRAD
 40
0.5
  9
$AUNITS
 70
     0
  9
$AUPREC
 70
     2
  9
$MENU
  1
.
  9
$ELEVATION
 40
0.0
  9
$PELEVATION
 40
0.0
  9
$THICKNESS
 40
0.0
  9
$LIMCHECK
 70
     0
  9
$CHAMFERA
 40
0.5
  9
$CHAMFERB
 40
0.5
  9
$CHAMFERC
 40
1.0
  9
$CHAMFERD
 40
0.0
  9
$SKPOLY
 70
     0
  9
$TDCREATE
 40
2457605.431879595
  9
$TDUCREATE
 40
2457605.348546261
  9
$TDUPDATE
 40
2457605.431880301
  9
$TDUUPDATE
 40
2457605.348546967
  9
$TDINDWG
 40
0.0000000116
  9
$TDUSRTIMER
 40
0.0000000116
  9
$USRTIMER
 70
     1
  9
$ANGBASE
 50
0.0
  9
$ANGDIR
 70
     0
  9
$PDMODE
 70
     0
  9
$PDSIZE
 40
0.0
  9
$PLINEWID
 40
0.0
  9
$SPLFRAME
 70
     0
  9
$SPLINETYPE
 70
     6
  9
$SPLINESEGS
 70
     8
  9
$HANDSEED
  5
E86
  9
$SURFTAB1
 70
     6
  9
$SURFTAB2
 70
     6
  9
$SURFTYPE
 70
     6
  9
$SURFU
 70
     6
  9
$SURFV
 70
     6
  9
$UCSBASE
  2

  9
$UCSNAME
  2

  9
$UCSORG
 10
0.0
 20
0.0
 30
0.0
  9
$UCSXDIR
 10
1.0
 20
0.0
 30
0.0
  9
$UCSYDIR
 10
0.0
 20
1.0
 30
0.0
  9
$UCSORTHOREF
  2

  9
$UCSORTHOVIEW
 70
     0
  9
$UCSORGTOP
 10
0.0
 20
0.0
 30
0.0
  9
$UCSORGBOTTOM
 10
0.0
 20
0.0
 30
0.0
  9
$UCSORGLEFT
 10
0.0
 20
0.0
 30
0.0
  9
$UCSORGRIGHT
 10
0.0
 20
0.0
 30
0.0
  9
$UCSORGFRONT
 10
0.0
 20
0.0
 30
0.0
  9
$UCSORGBACK
 10
0.0
 20
0.0
 30
0.0
  9
$PUCSBASE
  2

  9
$PUCSNAME
  2

  9
$PUCSORG
 10
0.0
 20
0.0
 30
0.0
  9
$PUCSXDIR
 10
1.0
 20
0.0
 30
0.0
  9
$PUCSYDIR
 10
0.0
 20
1.0
 30
0.0
  9
$PUCSORTHOREF
  2

  9
$PUCSORTHOVIEW
 70
     0
  9
$PUCSORGTOP
 10
0.0
 20
0.0
 30
0.0
  9
$PUCSORGBOTTOM
 10
0.0
 20
0.0
 30
0.0
  9
$PUCSORGLEFT
 10
0.0
 20
0.0
 30
0.0
  9
$PUCSORGRIGHT
 10
0.0
 20
0.0
 30
0.0
  9
$PUCSORGFRONT
 10
0.0
 20
0.0
 30
0.0
  9
$PUCSORGBACK
 10
0.0
 20
0.0
 30
0.0
  9
$USERI1
 70
     0
  9
$USERI2
 70
     0
  9
$USERI3
 70
     0
  9
$USERI4
 70
     0
  9
$USERI5
 70
     0
  9
$USERR1
 40
0.0
  9
$USERR2
 40
0.0
  9
$USERR3
 40
0.0
  9
$USERR4
 40
0.0
  9
$USERR5
 40
0.0
  9
$WORLDVIEW
 70
     1
  9
$SHADEDGE
 70
     3
  9
$SHADEDIF
 70
    70
  9
$TILEMODE
 70
     1
  9
$MAXACTVP
 70
     2
  9
$PINSBASE
 10
12.89069767441859
 20
8.048514211886328
 30
0.0
  9
$PLIMCHECK
 70
     0
  9
$PEXTMIN
 10
1.000000000000000E+20
 20
1.000000000000000E+20
 30
1.000000000000000E+20
  9
$PEXTMAX
 10
-1.000000000000000E+20
 20
-1.000000000000000E+20
 30
-1.000000000000000E+20
  9
$PLIMMIN
 10
0.0
 20
0.0
  9
$PLIMMAX
 10
297.0
 20
210.0
  9
$UNITMODE
 70
     0
  9
$VISRETAIN
 70
     1
  9
$PLINEGEN
 70
     0
  9
$PSLTSCALE
 70
     1
  9
$TREEDEPTH
 70
  3020
  9
$CMLSTYLE
  2
Standard
  9
$CMLJUST
 70
     0
  9
$CMLSCALE
 40
1.0
  9
$PROXYGRAPHICS
 70
     1
  9
$MEASUREMENT
 70
     1
  9
$CELWEIGHT
370
    -1
  9
$ENDCAPS
280
     0
  9
$JOINSTYLE
280
     0
  9
$LWDISPLAY
290
     0
  9
$INSUNITS
 70
     4
  9
$HYPERLINKBASE
  1

  9
$STYLESHEET
  1

  9
$XEDIT
290
     1
  9
$CEPSNTYPE
380
     0
  9
$PSTYLEMODE
290
     1
  9
$FINGERPRINTGUID
  2
{7E3D9C91-4A55-479C-AF7A-9C33A3D4F2EE}
  9
$VERSIONGUID
  2
{FAEB1C32-E019-11D5-929B-00C0DF256EC4}
  9
$EXTNAMES
290
     1
  9
$PSVPSCALE
 40
0.0
  9
$OLESTARTUP
290
     0
  9
$SORTENTS
280
   127
  9
$INDEXCTL
280
     0
  9
$HIDETEXT
280
     1
  9
$XCLIPFRAME
280
     2
  9
$HALOGAP
280
     0
  9
$OBSCOLOR
 70
   257
  9
$OBSLTYPE
280
     0
  9
$INTERSECTIONDISPLAY
280
     0
  9
$INTERSECTIONCOLOR
 70
   257
  9
$DIMASSOC
280
     2
  9
$PROJECTNAME
  1

  9
$CAMERADISPLAY
290
     0
  9
$LENSLENGTH
 40
50.0
  9
$CAMERAHEIGHT
 40
0.0
  9
$STEPSPERSEC
 40
2.0
  9
$STEPSIZE
 40
6.0
  9
$3DDWFPREC
 40
2.0
  9
$PSOLWIDTH
 40
0.25
  9
$PSOLHEIGHT
 40
4.0
  9
$LOFTANG1
 40
1.570796326794897
  9
$LOFTANG2
 40
1.570796326794897
  9
$LOFTMAG1
 40
0.0
  9
$LOFTMAG2
 40
0.0
  9
$LOFTPARAM
 70
     7
  9
$LOFTNORMALS
280
     1
  9
$LATITUDE
 40
37.795
  9
$LONGITUDE
 40
-122.394
  9
$NORTHDIRECTION
 40
0.0
  9
$TIMEZONE
 70
 -8000
  9
$LIGHTGLYPHDISPLAY
280
     1
  9
$TILEMODELIGHTSYNCH
280
     1
  9
$CMATERIAL
347
D8C
  9
$SOLIDHIST
280
     0
  9
$SHOWHIST
280
     1
  9
$DWFFRAME
280
     2
  9
$DGNFRAME
280
     2
  9
$REALWORLDSCALE
290
     1
  9
$INTERFERECOLOR
 62
   256
  9
$CSHADOW
280
     0
  9
$SHADOWPLANELOCATION
 40
0.0
  0
ENDSEC
  0
SECTION
  2
CLASSES
  0
CLASS
  1
ACDBDICTIONARYWDFLT
  2
AcDbDictionaryWithDefault
  3
ObjectDBX Classes
 90
        0
 91
        4
280
     0
281
     0
  0
CLASS
  1
VISUALSTYLE
  2
AcDbVisualStyle
  3
ObjectDBX Classes
 90
     4095
 91
        4
280
     0
281
     0
  0
CLASS
  1
MATERIAL
  2
AcDbMaterial
  3
ObjectDBX Classes
 90
     1153
 91
        4
280
     0
281
     0
  0
CLASS
  1
SCALE
  2
AcDbScale
  3
ObjectDBX Classes
 90
     1153
 91
        4
280
     0
281
     0
  0
CLASS
  1
TABLESTYLE
  2
AcDbTableStyle
  3
ObjectDBX Classes
 90
     4095
 91
        4
280
     0
281
     0
  0
CLASS
  1
MLEADERSTYLE
  2
AcDbMLeaderStyle
  3
ACDB_MLEADERSTYLE_CLASS
 90
     4095
 91
        4
280
     0
281
     0
  0
CLASS
  1
SUN
  2
AcDbSun
  3
SCENEOE
 90
     1153
 91
        4
280
     0
281
     0
  0
CLASS
  1
DICTIONARYVAR
  2
AcDbDictionaryVar
  3
ObjectDBX Classes
 90
        0
 91
        4
280
     0
281
     0
  0
CLASS
  1
CELLSTYLEMAP
  2
AcDbCellStyleMap
  3
ObjectDBX Classes
 90
     1152
 91
        4
280
     0
281
     0
  0
ENDSEC
  0
SECTION
  2
TABLES
  0
TABLE
  2
VPORT
  5
D51
330
0
100
AcDbSymbolTable
 70
     1
  0
VPORT
  5
D71
330
D51
100
AcDbSymbolTableRecord
100
AcDbViewportTableRecord
  2
*Active
 70
     0
 10
0.0
 20
0.0
 11
1.0
 21
1.0
 12
10.42990654205607
 22
4.5
 13
0.0
 23
0.0
 14
0.5
 24
0.5
 15
0.5
 25
0.5
 16
0.0
 26
0.0
 36
1.0
 17
0.0
 27
0.0
 37
0.0
 40
9.0
 41
1.972972972850329
 42
50.0
 43
0.0
 44
0.0
 50
0.0
 51
0.0
 71
     0
 72
   100
 73
     1
 74
     3
 75
     0
 76
     0
 77
     0
 78
     0
281
     0
 65
     1
110
0.0
120
0.0
130
0.0
111
1.0
121
0.0
131
0.0
112
0.0
122
1.0
132
0.0
 79
     0
146
0.0
 60
     3
 61
     5
292
     1
282
     1
141
0.0
142
0.0
 63
   250
361
DB5
  0
ENDTAB
  0
TABLE
  2
LTYPE
  5
D4E
330
0
100
AcDbSymbolTable
 70
    48
  0
LTYPE
  5
D5C
330
D4E
100
AcDbSymbolTableRecord
100
AcDbLinetypeTableRecord
  2
ByBlock
 70
     0
  3

 72
    65
 73
     0
 40
0.0
  0
LTYPE
  5
D5D
330
D4E
100
AcDbSymbolTableRecord
100
AcDbLinetypeTableRecord
  2
ByLayer
 70
     0
  3

 72
    65
 73
     0
 40
0.0
  0
LTYPE
  5
D5E
330
D4E
100
AcDbSymbolTableRecord
100
AcDbLinetypeTableRecord
  2
Continuous
 70
     0
  3
Solid line
 72
    65
 73
     0
 40
0.0
  0
LTYPE
  5
DEE
330
D4E
100
AcDbSymbolTableRecord
100
AcDbLinetypeTableRecord
  2
PHANTOMX2
 70
     0
  3
Phantom (2x) ____________    ____    ____   _
 72
    65
 73
     6
 40
127.0
 49
63.5
 74
     0
 49
-12.7
 74
     0
 49
12.7
 74
     0
 49
-12.7
 74
     0
 49
12.7
 74
     0
 49
-12.7
 74
     0
  0
LTYPE
  5
DF0
330
D4E
100
AcDbSymbolTableRecord
100
AcDbLinetypeTableRecord
  2
TRACKS
 70
     0
  3
Tracks -|-|-|-|-|-|-|-|-|-|-|-|-|-|-|-|-|-|-|-|-|-|-|-|-
 72
    65
 73
     2
 40
7.62
 49
3.81
 74
     2
 75
     0
340
DEF
 46
6.35
 50
0.0
 44
0.0
 45
0.0
  9
TRACK1
 49
3.81
 74
     0
  0
LTYPE
  5
DF3
330
D4E
100
AcDbSymbolTableRecord
100
AcDbLinetypeTableRecord
  2
ZIGZAG
 70
     0
  3
Zig zag /\/\/\/\/\/\/\/\/\/\/\/\/\/\/\/\/\/\/\/\/\/\/\/
 72
    65
 73
     4
 40
20.32254
 49
0.00254
 74
     0
 49
-5.08
 74
     2
 75
     0
340
DF1
 46
5.08
 50
0.0
 44
-5.08
 45
0.0
  9
ZIG
 49
-10.16
 74
     2
 75
     0
340
DF2
 46
5.08
 50
180.0
 44
5.08
 45
0.0
  9
ZIG
 49
-5.08
 74
     0
  0
LTYPE
  5
DF4
330
D4E
100
AcDbSymbolTableRecord
100
AcDbLinetypeTableRecord
  2
DIVIDE
 70
     0
  3

 72
    65
 73
     6
 40
29.99999999999999
 49
12.0
 74
     0
 49
-5.9
 74
     0
 49
0.15
 74
     0
 49
-5.9
 74
     0
 49
0.15
 74
     0
 49
-5.9
 74
     0
  0
LTYPE
  5
DF5
330
D4E
100
AcDbSymbolTableRecord
100
AcDbLinetypeTableRecord
  2
DIVIDE2
 70
     0
  3

 72
    65
 73
     6
 40
15.0
 49
6.0
 74
     0
 49
-2.9
 74
     0
 49
0.15
 74
     0
 49
-2.9
 74
     0
 49
0.15
 74
     0
 49
-2.9
 74
     0
  0
LTYPE
  5
DF6
330
D4E
100
AcDbSymbolTableRecord
100
AcDbLinetypeTableRecord
  2
DIVIDEX2
 70
     0
  3

 72
    65
 73
     6
 40
59.99999999999999
 49
24.0
 74
     0
 49
-11.9
 74
     0
 49
0.15
 74
     0
 49
-11.9
 74
     0
 49
0.15
 74
     0
 49
-11.9
 74
     0
  0
LTYPE
  5
DF7
330
D4E
100
AcDbSymbolTableRecord
100
AcDbLinetypeTableRecord
  2
DOT
 70
     0
  3

 72
    65
 73
     2
 40
6.3
 49
0.1
 74
     0
 49
-6.2
 74
     0
  0
LTYPE
  5
DF8
330
D4E
100
AcDbSymbolTableRecord
100
AcDbLinetypeTableRecord
  2
DOT2
 70
     0
  3

 72
    65
 73
     2
 40
3.2
 49
0.1
 74
     0
 49
-3.1
 74
     0
  0
LTYPE
  5
DF9
330
D4E
100
AcDbSymbolTableRecord
100
AcDbLinetypeTableRecord
  2
DOTX2
 70
     0
  3

 72
    65
 73
     2
 40
12.5
 49
0.1
 74
     0
 49
-12.4
 74
     0
  0
LTYPE
  5
DFB
330
D4E
100
AcDbSymbolTableRecord
100
AcDbLinetypeTableRecord
  2
DRAINAGE
 70
     0
  3
Drainage ---->---->---->----
 72
    65
 73
     2
 40
10.16
 49
5.08
 74
     2
 75
     0
340
DFA
 46
2.54
 50
180.0
 44
0.0
 45
0.0
  9
RIGHT_ARROW
 49
5.08
 74
     0
  0
LTYPE
  5
DFD
330
D4E
100
AcDbSymbolTableRecord
100
AcDbLinetypeTableRecord
  2
DRAINAGE2
 70
     0
  3
Drainage reversed----<----<----<----
 72
    65
 73
     2
 40
10.16
 49
5.08
 74
     2
 75
     0
340
DFC
 46
2.54
 50
0.0
 44
0.0
 45
0.0
  9
RIGHT_ARROW
 49
5.08
 74
     0
  0
LTYPE
  5
DFF
330
D4E
100
AcDbSymbolTableRecord
100
AcDbLinetypeTableRecord
  2
FENCELINE1
 70
     0
  3
Fenceline circle ----0-----0----0-----0----0-----0--
 72
    65
 73
     4
 40
36.83
 49
6.35
 74
     0
 49
-2.54
 74
     2
 75
     0
340
DFE
 46
2.54
 50
0.0
 44
-2.54
 45
0.0
  9
CIRC1
 49
-2.54
 74
     0
 49
25.4
 74
     0
  0
LTYPE
  5
E01
330
D4E
100
AcDbSymbolTableRecord
100
AcDbLinetypeTableRecord
  2
FENCELINE2
 70
     0
  3
Fenceline square ----[]-----[]----[]-----[]----[]---
 72
    65
 73
     4
 40
36.83
 49
6.35
 74
     0
 49
-2.54
 74
     2
 75
     0
340
E00
 46
2.54
 50
0.0
 44
-2.54
 45
0.0
  9
BOX
 49
-2.54
 74
     0
 49
25.4
 74
     0
  0
LTYPE
  5
E03
330
D4E
100
AcDbSymbolTableRecord
100
AcDbLinetypeTableRecord
  2
GAS_LINE
 70
     0
  3
Gas line ----GAS----GAS----GAS----GAS----GAS----GAS--
 72
    65
 73
     3
 40
24.13
 49
12.7
 74
     0
 49
-5.08
 74
     2
 75
     0
340
E02
 46
2.54
 50
0.0
 44
-2.54
 45
-1.27
  9
GAS
 49
-6.35
 74
     0
  0
LTYPE
  5
E04
330
D4E
100
AcDbSymbolTableRecord
100
AcDbLinetypeTableRecord
  2
HIDDEN
 70
     0
  3
Hidden __ __ __ __ __ __ __ __ __ __ __ __ __ __
 72
    65
 73
     2
 40
9.524999999999999
 49
6.35
 74
     0
 49
-3.175
 74
     0
  0
LTYPE
  5
E05
330
D4E
100
AcDbSymbolTableRecord
100
AcDbLinetypeTableRecord
  2
HIDDEN2
 70
     0
  3
Hidden (.5x) _ _ _ _ _ _ _ _ _ _ _ _ _ _ _ _ _ 
 72
    65
 73
     2
 40
4.762499999999999
 49
3.175
 74
     0
 49
-1.5875
 74
     0
  0
LTYPE
  5
E06
330
D4E
100
AcDbSymbolTableRecord
100
AcDbLinetypeTableRecord
  2
HIDDENX2
 70
     0
  3
Hidden (2x) ____ ____ ____ ____ ____ ____ ____ 
 72
    65
 73
     2
 40
19.05
 49
12.7
 74
     0
 49
-6.35
 74
     0
  0
LTYPE
  5
E08
330
D4E
100
AcDbSymbolTableRecord
100
AcDbLinetypeTableRecord
  2
HOT_WATER_SUPPLY
 70
     0
  3
Hot water supply ---- HW ---- HW ---- HW ----
 72
    65
 73
     3
 40
22.86
 49
12.7
 74
     0
 49
-5.08
 74
     2
 75
     0
340
E07
 46
2.54
 50
0.0
 44
-2.54
 45
-1.27
  9
HW
 49
-5.08
 74
     0
  0
LTYPE
  5
E09
330
D4E
100
AcDbSymbolTableRecord
100
AcDbLinetypeTableRecord
  2
PHANTOM
 70
     0
  3
Phantom ______  __  __  ______  __  __  ______ 
 72
    65
 73
     6
 40
63.50000000000001
 49
31.75
 74
     0
 49
-6.35
 74
     0
 49
6.35
 74
     0
 49
-6.35
 74
     0
 49
6.35
 74
     0
 49
-6.35
 74
     0
  0
LTYPE
  5
E0A
330
D4E
100
AcDbSymbolTableRecord
100
AcDbLinetypeTableRecord
  2
ACAD_ISO13W100
 70
     0
  3
ISO double-dash double-dot __ __ . . __ __ . . _
 72
    65
 73
     8
 40
36.0
 49
12.0
 74
     0
 49
-3.0
 74
     0
 49
12.0
 74
     0
 49
-3.0
 74
     0
 49
0.0
 74
     0
 49
-3.0
 74
     0
 49
0.0
 74
     0
 49
-3.0
 74
     0
  0
LTYPE
  5
E0B
330
D4E
100
AcDbSymbolTableRecord
100
AcDbLinetypeTableRecord
  2
ACAD_ISO14W100
 70
     0
  3
ISO dash triple-dot __ . . . __ . . . __ . . . _
 72
    65
 73
     8
 40
24.0
 49
12.0
 74
     0
 49
-3.0
 74
     0
 49
0.0
 74
     0
 49
-3.0
 74
     0
 49
0.0
 74
     0
 49
-3.0
 74
     0
 49
0.0
 74
     0
 49
-3.0
 74
     0
  0
LTYPE
  5
E0C
330
D4E
100
AcDbSymbolTableRecord
100
AcDbLinetypeTableRecord
  2
ACAD_ISO15W100
 70
     0
  3
ISO double-dash triple-dot __ __ . . . __ __ . .
 72
    65
 73
    10
 40
39.0
 49
12.0
 74
     0
 49
-3.0
 74
     0
 49
12.0
 74
     0
 49
-3.0
 74
     0
 49
0.0
 74
     0
 49
-3.0
 74
     0
 49
0.0
 74
     0
 49
-3.0
 74
     0
 49
0.0
 74
     0
 49
-3.0
 74
     0
  0
LTYPE
  5
E0F
330
D4E
100
AcDbSymbolTableRecord
100
AcDbLinetypeTableRecord
  2
BATTING
 70
     0
  3
Batting SSSSSSSSSSSSSSSSSSSSSSSSSSSSSSSSSSSSSSSSSSSSSSS
 72
    65
 73
     4
 40
10.16254
 49
0.00254
 74
     0
 49
-2.54
 74
     2
 75
     0
340
E0D
 46
2.54
 50
0.0
 44
-2.54
 45
0.0
  9
BAT
 49
-5.08
 74
     2
 75
     0
340
E0E
 46
2.54
 50
180.0
 44
2.54
 45
0.0
  9
BAT
 49
-2.54
 74
     0
  0
LTYPE
  5
E10
330
D4E
100
AcDbSymbolTableRecord
100
AcDbLinetypeTableRecord
  2
BORDER
 70
     0
  3

 72
    65
 73
     6
 40
42.00000000000001
 49
12.0
 74
     0
 49
-6.0
 74
     0
 49
12.0
 74
     0
 49
-5.95
 74
     0
 49
0.1
 74
     0
 49
-5.95
 74
     0
  0
LTYPE
  5
E11
330
D4E
100
AcDbSymbolTableRecord
100
AcDbLinetypeTableRecord
  2
BORDER2
 70
     0
  3

 72
    65
 73
     6
 40
21.0
 49
6.0
 74
     0
 49
-3.0
 74
     0
 49
6.0
 74
     0
 49
-2.95
 74
     0
 49
0.1
 74
     0
 49
-2.95
 74
     0
  0
LTYPE
  5
E12
330
D4E
100
AcDbSymbolTableRecord
100
AcDbLinetypeTableRecord
  2
BORDERX2
 70
     0
  3

 72
    65
 73
     6
 40
84.0
 49
24.0
 74
     0
 49
-12.0
 74
     0
 49
24.0
 74
     0
 49
-11.95
 74
     0
 49
0.1
 74
     0
 49
-11.95
 74
     0
  0
LTYPE
  5
E13
330
D4E
100
AcDbSymbolTableRecord
100
AcDbLinetypeTableRecord
  2
CENTER
 70
     0
  3

 72
    65
 73
     4
 40
50.0
 49
32.0
 74
     0
 49
-6.0
 74
     0
 49
6.0
 74
     0
 49
-6.0
 74
     0
  0
LTYPE
  5
E14
330
D4E
100
AcDbSymbolTableRecord
100
AcDbLinetypeTableRecord
  2
CENTER2
 70
     0
  3

 72
    65
 73
     4
 40
25.0
 49
16.0
 74
     0
 49
-3.0
 74
     0
 49
3.0
 74
     0
 49
-3.0
 74
     0
  0
LTYPE
  5
E15
330
D4E
100
AcDbSymbolTableRecord
100
AcDbLinetypeTableRecord
  2
CENTERX2
 70
     0
  3

 72
    65
 73
     4
 40
100.0
 49
64.0
 74
     0
 49
-12.0
 74
     0
 49
12.0
 74
     0
 49
-12.0
 74
     0
  0
LTYPE
  5
E16
330
D4E
100
AcDbSymbolTableRecord
100
AcDbLinetypeTableRecord
  2
DASHDOT
 70
     0
  3

 72
    65
 73
     4
 40
24.0
 49
12.0
 74
     0
 49
-5.95
 74
     0
 49
0.1
 74
     0
 49
-5.95
 74
     0
  0
LTYPE
  5
E17
330
D4E
100
AcDbSymbolTableRecord
100
AcDbLinetypeTableRecord
  2
DASHDOT2
 70
     0
  3

 72
    65
 73
     4
 40
12.0
 49
6.0
 74
     0
 49
-2.95
 74
     0
 49
0.1
 74
     0
 49
-2.95
 74
     0
  0
LTYPE
  5
E18
330
D4E
100
AcDbSymbolTableRecord
100
AcDbLinetypeTableRecord
  2
DASHDOTX2
 70
     0
  3

 72
    65
 73
     4
 40
48.0
 49
24.0
 74
     0
 49
-11.95
 74
     0
 49
0.1
 74
     0
 49
-11.95
 74
     0
  0
LTYPE
  5
E19
330
D4E
100
AcDbSymbolTableRecord
100
AcDbLinetypeTableRecord
  2
DASHED
 70
     0
  3

 72
    65
 73
     2
 40
18.0
 49
12.0
 74
     0
 49
-6.0
 74
     0
  0
LTYPE
  5
E1A
330
D4E
100
AcDbSymbolTableRecord
100
AcDbLinetypeTableRecord
  2
DASHED2
 70
     0
  3

 72
    65
 73
     2
 40
9.0
 49
6.0
 74
     0
 49
-3.0
 74
     0
  0
LTYPE
  5
E1B
330
D4E
100
AcDbSymbolTableRecord
100
AcDbLinetypeTableRecord
  2
DASHEDX2
 70
     0
  3

 72
    65
 73
     2
 40
36.0
 49
24.0
 74
     0
 49
-12.0
 74
     0
  0
LTYPE
  5
E1C
330
D4E
100
AcDbSymbolTableRecord
100
AcDbLinetypeTableRecord
  2
ACAD_ISO02W100
 70
     0
  3
ISO dash __ __ __ __ __ __ __ __ __ __ __ __ __
 72
    65
 73
     2
 40
15.0
 49
12.0
 74
     0
 49
-3.0
 74
     0
  0
LTYPE
  5
E1D
330
D4E
100
AcDbSymbolTableRecord
100
AcDbLinetypeTableRecord
  2
ACAD_ISO03W100
 70
     0
  3
ISO dash space __    __    __    __    __    __
 72
    65
 73
     2
 40
30.0
 49
12.0
 74
     0
 49
-18.0
 74
     0
  0
LTYPE
  5
E1E
330
D4E
100
AcDbSymbolTableRecord
100
AcDbLinetypeTableRecord
  2
ACAD_ISO04W100
 70
     0
  3
ISO long-dash dot ____ . ____ . ____ . ____ . _
 72
    65
 73
     4
 40
30.0
 49
24.0
 74
     0
 49
-3.0
 74
     0
 49
0.0
 74
     0
 49
-3.0
 74
     0
  0
LTYPE
  5
E1F
330
D4E
100
AcDbSymbolTableRecord
100
AcDbLinetypeTableRecord
  2
ACAD_ISO05W100
 70
     0
  3
ISO long-dash double-dot ____ .. ____ .. ____ . 
 72
    65
 73
     6
 40
33.0
 49
24.0
 74
     0
 49
-3.0
 74
     0
 49
0.0
 74
     0
 49
-3.0
 74
     0
 49
0.0
 74
     0
 49
-3.0
 74
     0
  0
LTYPE
  5
E20
330
D4E
100
AcDbSymbolTableRecord
100
AcDbLinetypeTableRecord
  2
ACAD_ISO06W100
 70
     0
  3
ISO long-dash triple-dot ____ ... ____ ... ____
 72
    65
 73
     8
 40
36.0
 49
24.0
 74
     0
 49
-3.0
 74
     0
 49
0.0
 74
     0
 49
-3.0
 74
     0
 49
0.0
 74
     0
 49
-3.0
 74
     0
 49
0.0
 74
     0
 49
-3.0
 74
     0
  0
LTYPE
  5
E21
330
D4E
100
AcDbSymbolTableRecord
100
AcDbLinetypeTableRecord
  2
ACAD_ISO07W100
 70
     0
  3
ISO dot . . . . . . . . . . . . . . . . . . . . 
 72
    65
 73
     2
 40
3.0
 49
0.0
 74
     0
 49
-3.0
 74
     0
  0
LTYPE
  5
E22
330
D4E
100
AcDbSymbolTableRecord
100
AcDbLinetypeTableRecord
  2
ACAD_ISO08W100
 70
     0
  3
ISO long-dash short-dash ____ __ ____ __ ____ _
 72
    65
 73
     4
 40
36.0
 49
24.0
 74
     0
 49
-3.0
 74
     0
 49
6.0
 74
     0
 49
-3.0
 74
     0
  0
LTYPE
  5
E23
330
D4E
100
AcDbSymbolTableRecord
100
AcDbLinetypeTableRecord
  2
ACAD_ISO09W100
 70
     0
  3
ISO long-dash double-short-dash ____ __ __ ____
 72
    65
 73
     6
 40
45.0
 49
24.0
 74
     0
 49
-3.0
 74
     0
 49
6.0
 74
     0
 49
-3.0
 74
     0
 49
6.0
 74
     0
 49
-3.0
 74
     0
  0
LTYPE
  5
E24
330
D4E
100
AcDbSymbolTableRecord
100
AcDbLinetypeTableRecord
  2
ACAD_ISO10W100
 70
     0
  3
ISO dash dot __ . __ . __ . __ . __ . __ . __ . 
 72
    65
 73
     4
 40
18.0
 49
12.0
 74
     0
 49
-3.0
 74
     0
 49
0.0
 74
     0
 49
-3.0
 74
     0
  0
LTYPE
  5
E25
330
D4E
100
AcDbSymbolTableRecord
100
AcDbLinetypeTableRecord
  2
ACAD_ISO11W100
 70
     0
  3
ISO double-dash dot __ __ . __ __ . __ __ . __ _
 72
    65
 73
     6
 40
33.0
 49
12.0
 74
     0
 49
-3.0
 74
     0
 49
12.0
 74
     0
 49
-3.0
 74
     0
 49
0.0
 74
     0
 49
-3.0
 74
     0
  0
LTYPE
  5
E26
330
D4E
100
AcDbSymbolTableRecord
100
AcDbLinetypeTableRecord
  2
ACAD_ISO12W100
 70
     0
  3
ISO dash double-dot __ . . __ . . __ . . __ . . 
 72
    65
 73
     6
 40
21.0
 49
12.0
 74
     0
 49
-3.0
 74
     0
 49
0.0
 74
     0
 49
-3.0
 74
     0
 49
0.0
 74
     0
 49
-3.0
 74
     0
  0
LTYPE
  5
E27
330
D4E
100
AcDbSymbolTableRecord
100
AcDbLinetypeTableRecord
  2
PHANTOM2
 70
     0
  3
Phantom (.5x) ___ _ _ ___ _ _ ___ _ _ ___ _ _
 72
    65
 73
     6
 40
31.75
 49
15.875
 74
     0
 49
-3.175
 74
     0
 49
3.175
 74
     0
 49
-3.175
 74
     0
 49
3.175
 74
     0
 49
-3.175
 74
     0
  0
ENDTAB
  0
TABLE
  2
LAYER
  5
D4B
330
0
100
AcDbSymbolTable
 70
     8
  0
LAYER
  5
D59
330
D4B
100
AcDbSymbolTableRecord
100
AcDbLayerTableRecord
  2
0
 70
     1
 62
     7
420
 16777215
  6
Continuous
370
    -3
390
D58
347
D8E
  0
LAYER
  5
E28
330
D4B
100
AcDbSymbolTableRecord
100
AcDbLayerTableRecord
  2
board
 70
     1
 62
    18
420
        0
  6
Continuous
370
     0
390
D58
347
D8E
  0
LAYER
  5
E29
330
D4B
100
AcDbSymbolTableRecord
100
AcDbLayerTableRecord
  2
accesoires
 70
     1
 62
    18
420
        0
  6
Continuous
370
     0
390
D58
347
D8E
  0
LAYER
  5
E2A
330
D4B
100
AcDbSymbolTableRecord
100
AcDbLayerTableRecord
  2
labels
 70
     0
 62
    18
420
        0
  6
Continuous
370
     0
390
D58
347
D8E
  0
LAYER
  5
E2B
330
D4B
100
AcDbSymbolTableRecord
100
AcDbLayerTableRecord
  2
remarks
 70
     0
 62
    18
420
        0
  6
Continuous
370
    25
390
D58
347
D8E
  0
LAYER
  5
E2C
330
D4B
100
AcDbSymbolTableRecord
100
AcDbLayerTableRecord
  2
holes
 70
     1
 62
    18
420
        0
  6
Continuous
370
     0
390
D58
347
D8E
  0
LAYER
  5
E2D
330
D4B
100
AcDbSymbolTableRecord
100
AcDbLayerTableRecord
  2
milling
 70
     1
 62
    18
420
        0
  6
Continuous
370
     0
390
D58
347
D8E
  0
LAYER
  5
E2E
330
D4B
100
AcDbSymbolTableRecord
100
AcDbLayerTableRecord
  2
milling-center
 70
     1
 62
    18
420
        0
  6
Continuous
370
     0
390
D58
347
D8E
  0
ENDTAB
  0
TABLE
  2
STYLE
  5
D4C
330
0
100
AcDbSymbolTable
 70
    43
  0
STYLE
  5
D5A
330
D4C
100
AcDbSymbolTableRecord
100
AcDbTextStyleTableRecord
  2
Standard
 70
     0
 40
0.0
 41
1.0
 50
0.0
 71
     0
 42
2.5
  3
txt
  4

  0
STYLE
  5
DEC
330
D4C
100
AcDbSymbolTableRecord
100
AcDbTextStyleTableRecord
  2
QCADDimTextStyle
 70
     0
 40
0.0
 41
1.0
 50
0.0
 71
     0
 42
2.5
  3

  4

  0
STYLE
  5
DEF
330
D4C
100
AcDbSymbolTableRecord
100
AcDbTextStyleTableRecord
  2
textstyle0
 70
     0
 40
0.0
 41
1.0
 50
0.0
 71
     0
 42
2.5
  3
ltypeshp.shx
  4

  0
STYLE
  5
DF1
330
D4C
100
AcDbSymbolTableRecord
100
AcDbTextStyleTableRecord
  2
textstyle1
 70
     0
 40
0.0
 41
1.0
 50
0.0
 71
     0
 42
2.5
  3
ltypeshp.shx
  4

  0
STYLE
  5
DF2
330
D4C
100
AcDbSymbolTableRecord
100
AcDbTextStyleTableRecord
  2
textstyle2
 70
     0
 40
0.0
 41
1.0
 50
0.0
 71
     0
 42
2.5
  3
ltypeshp.shx
  4

  0
STYLE
  5
DFA
330
D4C
100
AcDbSymbolTableRecord
100
AcDbTextStyleTableRecord
  2
textstyle3
 70
     0
 40
0.0
 41
1.0
 50
0.0
 71
     0
 42
2.5
  3
qcadshp.shx
  4

  0
STYLE
  5
DFC
330
D4C
100
AcDbSymbolTableRecord
100
AcDbTextStyleTableRecord
  2
textstyle4
 70
     0
 40
0.0
 41
1.0
 50
0.0
 71
     0
 42
2.5
  3
qcadshp.shx
  4

  0
STYLE
  5
DFE
330
D4C
100
AcDbSymbolTableRecord
100
AcDbTextStyleTableRecord
  2
textstyle5
 70
     0
 40
0.0
 41
1.0
 50
0.0
 71
     0
 42
2.5
  3
ltypeshp.shx
  4

  0
STYLE
  5
E00
330
D4C
100
AcDbSymbolTableRecord
100
AcDbTextStyleTableRecord
  2
textstyle6
 70
     0
 40
0.0
 41
1.0
 50
0.0
 71
     0
 42
2.5
  3
ltypeshp.shx
  4

  0
STYLE
  5
E02
330
D4C
100
AcDbSymbolTableRecord
100
AcDbTextStyleTableRecord
  2
textstyle7
 70
     0
 40
0.0
 41
1.0
 50
0.0
 71
     0
 42
2.5
  3
STANDARD
  4

  0
STYLE
  5
E07
330
D4C
100
AcDbSymbolTableRecord
100
AcDbTextStyleTableRecord
  2
textstyle8
 70
     0
 40
0.0
 41
1.0
 50
0.0
 71
     0
 42
2.5
  3
STANDARD
  4

  0
STYLE
  5
E0D
330
D4C
100
AcDbSymbolTableRecord
100
AcDbTextStyleTableRecord
  2
textstyle9
 70
     0
 40
0.0
 41
1.0
 50
0.0
 71
     0
 42
2.5
  3
ltypeshp.shx
  4

  0
STYLE
  5
E0E
330
D4C
100
AcDbSymbolTableRecord
100
AcDbTextStyleTableRecord
  2
textstyle10
 70
     0
 40
0.0
 41
1.0
 50
0.0
 71
     0
 42
2.5
  3
ltypeshp.shx
  4

  0
STYLE
  5
E2F
330
D4C
100
AcDbSymbolTableRecord
100
AcDbTextStyleTableRecord
  2
textstyle11
 70
     0
 40
0.0
 41
1.0
 50
0.0
 71
     0
 42
2.5
  3
Standard
  4

1001
ACAD
1000
Standard
1071
        0
  0
STYLE
  5
E30
330
D4C
100
AcDbSymbolTableRecord
100
AcDbTextStyleTableRecord
  2
textstyle12
 70
     0
 40
0.0
 41
1.0
 50
0.0
 71
     0
 42
2.5
  3

  4

1001
ACAD
1000
Hemi Head 426
1071
        0
  0
STYLE
  5
E31
330
D4C
100
AcDbSymbolTableRecord
100
AcDbTextStyleTableRecord
  2
textstyle13
 70
     0
 40
0.0
 41
1.0
 50
0.0
 71
     0
 42
2.5
  3

  4

1001
ACAD
1000
Hemi Head 426
1071
        0
  0
STYLE
  5
E32
330
D4C
100
AcDbSymbolTableRecord
100
AcDbTextStyleTableRecord
  2
textstyle14
 70
     0
 40
0.0
 41
1.0
 50
0.0
 71
     0
 42
2.5
  3

  4

1001
ACAD
1000
Hemi Head 426
1071
        0
  0
STYLE
  5
E33
330
D4C
100
AcDbSymbolTableRecord
100
AcDbTextStyleTableRecord
  2
textstyle15
 70
     0
 40
0.0
 41
1.0
 50
0.0
 71
     0
 42
2.5
  3

  4

1001
ACAD
1000
Hemi Head 426
1071
        0
  0
STYLE
  5
E34
330
D4C
100
AcDbSymbolTableRecord
100
AcDbTextStyleTableRecord
  2
textstyle16
 70
     0
 40
0.0
 41
1.0
 50
0.0
 71
     0
 42
2.5
  3

  4

1001
ACAD
1000
Hemi Head 426
1071
        0
  0
STYLE
  5
E35
330
D4C
100
AcDbSymbolTableRecord
100
AcDbTextStyleTableRecord
  2
textstyle17
 70
     0
 40
0.0
 41
1.0
 50
0.0
 71
     0
 42
2.5
  3

  4

1001
ACAD
1000
Hemi Head 426
1071
        0
  0
STYLE
  5
E36
330
D4C
100
AcDbSymbolTableRecord
100
AcDbTextStyleTableRecord
  2
textstyle18
 70
     0
 40
0.0
 41
1.0
 50
0.0
 71
     0
 42
2.5
  3

  4

1001
ACAD
1000
Hemi Head 426
1071
        0
  0
STYLE
  5
E37
330
D4C
100
AcDbSymbolTableRecord
100
AcDbTextStyleTableRecord
  2
textstyle19
 70
     0
 40
0.0
 41
1.0
 50
0.0
 71
     0
 42
2.5
  3

  4

1001
ACAD
1000
Hemi Head 426
1071
        0
  0
STYLE
  5
E38
330
D4C
100
AcDbSymbolTableRecord
100
AcDbTextStyleTableRecord
  2
textstyle20
 70
     0
 40
0.0
 41
1.0
 50
0.0
 71
     0
 42
2.5
  3

  4

1001
ACAD
1000
Hemi Head 426
1071
        0
  0
STYLE
  5
E39
330
D4C
100
AcDbSymbolTableRecord
100
AcDbTextStyleTableRecord
  2
textstyle21
 70
     0
 40
0.0
 41
1.0
 50
0.0
 71
     0
 42
2.5
  3

  4

1001
ACAD
1000
Hemi Head 426
1071
        0
  0
STYLE
  5
E3A
330
D4C
100
AcDbSymbolTableRecord
100
AcDbTextStyleTableRecord
  2
textstyle22
 70
     0
 40
0.0
 41
1.0
 50
0.0
 71
     0
 42
2.5
  3

  4

1001
ACAD
1000
Hemi Head 426
1071
        0
  0
STYLE
  5
E3B
330
D4C
100
AcDbSymbolTableRecord
100
AcDbTextStyleTableRecord
  2
textstyle23
 70
     0
 40
0.0
 41
1.0
 50
0.0
 71
     0
 42
2.5
  3

  4

1001
ACAD
1000
Hemi Head 426
1071
        0
  0
STYLE
  5
E3C
330
D4C
100
AcDbSymbolTableRecord
100
AcDbTextStyleTableRecord
  2
textstyle24
 70
     0
 40
0.0
 41
1.0
 50
0.0
 71
     0
 42
2.5
  3

  4

1001
ACAD
1000
Hemi Head 426
1071
        0
  0
STYLE
  5
E3D
330
D4C
100
AcDbSymbolTableRecord
100
AcDbTextStyleTableRecord
  2
textstyle25
 70
     0
 40
0.0
 41
1.0
 50
0.0
 71
     0
 42
2.5
  3

  4

1001
ACAD
1000
Hemi Head 426
1071
        0
  0
STYLE
  5
E3E
330
D4C
100
AcDbSymbolTableRecord
100
AcDbTextStyleTableRecord
  2
textstyle26
 70
     0
 40
0.0
 41
1.0
 50
0.0
 71
     0
 42
2.5
  3

  4

1001
ACAD
1000
Hemi Head 426
1071
        0
  0
STYLE
  5
E3F
330
D4C
100
AcDbSymbolTableRecord
100
AcDbTextStyleTableRecord
  2
textstyle27
 70
     0
 40
0.0
 41
1.0
 50
0.0
 71
     0
 42
2.5
  3

  4

1001
ACAD
1000
Hemi Head 426
1071
        0
  0
STYLE
  5
E40
330
D4C
100
AcDbSymbolTableRecord
100
AcDbTextStyleTableRecord
  2
textstyle28
 70
     0
 40
0.0
 41
1.0
 50
0.0
 71
     0
 42
2.5
  3

  4

1001
ACAD
1000
Hemi Head 426
1071
        0
  0
STYLE
  5
E41
330
D4C
100
AcDbSymbolTableRecord
100
AcDbTextStyleTableRecord
  2
textstyle29
 70
     0
 40
0.0
 41
1.0
 50
0.0
 71
     0
 42
2.5
  3

  4

1001
ACAD
1000
Hemi Head 426
1071
        0
  0
STYLE
  5
E42
330
D4C
100
AcDbSymbolTableRecord
100
AcDbTextStyleTableRecord
  2
textstyle30
 70
     0
 40
0.0
 41
1.0
 50
0.0
 71
     0
 42
2.5
  3

  4

1001
ACAD
1000
Hemi Head 426
1071
        0
  0
STYLE
  5
E43
330
D4C
100
AcDbSymbolTableRecord
100
AcDbTextStyleTableRecord
  2
textstyle31
 70
     0
 40
0.0
 41
1.0
 50
0.0
 71
     0
 42
2.5
  3

  4

1001
ACAD
1000
Hemi Head 426
1071
        0
  0
STYLE
  5
E44
330
D4C
100
AcDbSymbolTableRecord
100
AcDbTextStyleTableRecord
  2
textstyle32
 70
     0
 40
0.0
 41
1.0
 50
0.0
 71
     0
 42
2.5
  3

  4

1001
ACAD
1000
Hemi Head 426
1071
        0
  0
STYLE
  5
E45
330
D4C
100
AcDbSymbolTableRecord
100
AcDbTextStyleTableRecord
  2
textstyle33
 70
     0
 40
0.0
 41
1.0
 50
0.0
 71
     0
 42
2.5
  3

  4

1001
ACAD
1000
Hemi Head 426
1071
        0
  0
STYLE
  5
E46
330
D4C
100
AcDbSymbolTableRecord
100
AcDbTextStyleTableRecord
  2
textstyle34
 70
     0
 40
0.0
 41
1.0
 50
0.0
 71
     0
 42
2.5
  3

  4

1001
ACAD
1000
Hemi Head 426
1071
        0
  0
STYLE
  5
E47
330
D4C
100
AcDbSymbolTableRecord
100
AcDbTextStyleTableRecord
  2
textstyle35
 70
     0
 40
0.0
 41
1.0
 50
0.0
 71
     0
 42
2.5
  3

  4

1001
ACAD
1000
Hemi Head 426
1071
        0
  0
STYLE
  5
E48
330
D4C
100
AcDbSymbolTableRecord
100
AcDbTextStyleTableRecord
  2
textstyle36
 70
     0
 40
0.0
 41
1.0
 50
0.0
 71
     0
 42
2.5
  3

  4

1001
ACAD
1000
Hemi Head 426
1071
        0
  0
STYLE
  5
E49
330
D4C
100
AcDbSymbolTableRecord
100
AcDbTextStyleTableRecord
  2
textstyle37
 70
     0
 40
0.0
 41
1.0
 50
0.0
 71
     0
 42
2.5
  3

  4

1001
ACAD
1000
Hemi Head 426
1071
        0
  0
STYLE
  5
E4A
330
D4C
100
AcDbSymbolTableRecord
100
AcDbTextStyleTableRecord
  2
textstyle38
 70
     0
 40
0.0
 41
1.0
 50
0.0
 71
     0
 42
2.5
  3

  4

1001
ACAD
1000
Hemi Head 426
1071
        0
  0
STYLE
  5
E4B
330
D4C
100
AcDbSymbolTableRecord
100
AcDbTextStyleTableRecord
  2
textstyle39
 70
     0
 40
0.0
 41
1.0
 50
0.0
 71
     0
 42
2.5
  3

  4

1001
ACAD
1000
Hemi Head 426
1071
        0
  0
STYLE
  5
E4C
330
D4C
100
AcDbSymbolTableRecord
100
AcDbTextStyleTableRecord
  2
textstyle40
 70
     0
 40
0.0
 41
1.0
 50
0.0
 71
     0
 42
2.5
  3
standard
  4

1001
ACAD
1000
standard
1071
        0
  0
ENDTAB
  0
TABLE
  2
VIEW
  5
D4F
330
0
100
AcDbSymbolTable
 70
     0
  0
ENDTAB
  0
TABLE
  2
UCS
  5
D50
330
0
100
AcDbSymbolTable
 70
     0
  0
ENDTAB
  0
TABLE
  2
APPID
  5
D52
330
0
100
AcDbSymbolTable
 70
     2
  0
APPID
  5
D5B
330
D52
100
AcDbSymbolTableRecord
100
AcDbRegAppTableRecord
  2
ACAD
 70
     0
  0
APPID
  5
DB6
330
D52
100
AcDbSymbolTableRecord
100
AcDbRegAppTableRecord
  2
QCAD
 70
     0
  0
ENDTAB
  0
TABLE
  2
DIMSTYLE
  5
D53
330
0
100
AcDbSymbolTable
 70
     2
100
AcDbDimStyleTable
  0
DIMSTYLE
105
D6F
330
D53
100
AcDbSymbolTableRecord
100
AcDbDimStyleTableRecord
  2
Standard
 70
     0
178
     0
340
D5A
  0
DIMSTYLE
105
DED
330
D53
100
AcDbSymbolTableRecord
100
AcDbDimStyleTableRecord
  2
QCADDimStyle
 70
     0
 41
2.5
 42
0.625
 44
1.25
 73
     0
 77
     1
140
2.5
147
0.625
178
     0
340
DEC
  0
ENDTAB
  0
TABLE
  2
BLOCK_RECORD
  5
D4A
330
0
100
AcDbSymbolTable
 70
     1
  0
BLOCK_RECORD
  5
D67
330
D4A
100
AcDbSymbolTableRecord
100
AcDbBlockTableRecord
  2
*Model_Space
340
D6A
 70
     0
280
     1
281
     0
  0
BLOCK_RECORD
  5
D63
330
D4A
100
AcDbSymbolTableRecord
100
AcDbBlockTableRecord
  2
*Paper_Space
340
D66
 70
     0
280
     1
281
     0
  0
BLOCK_RECORD
  5
D6B
330
D4A
100
AcDbSymbolTableRecord
100
AcDbBlockTableRecord
  2
*Paper_Space0
340
D6E
 70
     0
280
     1
281
     0
  0
ENDTAB
  0
ENDSEC
  0
SECTION
  2
BLOCKS
  0
BLOCK
  5
D68
330
D67
100
AcDbEntity
  8
0
100
AcDbBlockBegin
  2
*Model_Space
 70
     0
 10
0.0
 20
0.0
 30
0.0
  3
*Model_Space
  1
*Model_Space
  0
ENDBLK
  5
D69
330
D67
100
AcDbEntity
  8
0
100
AcDbBlockEnd
  0
BLOCK
  5
D64
330
D63
100
AcDbEntity
 67
     1
  8
0
100
AcDbBlockBegin
  2
*Paper_Space
 70
     0
 10
0.0
 20
0.0
 30
0.0
  3
*Paper_Space
  1
*Paper_Space
  0
ENDBLK
  5
D65
330
D63
100
AcDbEntity
 67
     1
  8
0
100
AcDbBlockEnd
  0
BLOCK
  5
D6C
330
D6B
100
AcDbEntity
  8
0
100
AcDbBlockBegin
  2
*Paper_Space0
 70
     0
 10
0.0
 20
0.0
 30
0.0
  3
*Paper_Space0
  1
*Paper_Space0
  0
ENDBLK
  5
D6D
330
D6B
100
AcDbEntity
  8
0
100
AcDbBlockEnd
  0
ENDSEC
  0
SECTION
  2
ENTITIES
  0
LINE
  5
4A
330
D67
100
AcDbEntity
  8
0
370
     0
100
AcDbLine
 10
15.50000000000017
 20
5.999999999999977
 30
0.0
 11
259.5000000000002
 21
5.999999999999901
 31
0.0
  0
LINE
  5
51
330
D67
100
AcDbEntity
  8
0
370
     0
100
AcDbLine
 10
15.50000000000017
 20
161.9999999999999
 30
0.0
 11
259.5000000000002
 21
161.9999999999999
 31
0.0
  0
LINE
  5
52
330
D67
100
AcDbEntity
  8
0
370
     0
100
AcDbLine
 10
11.50000000000017
 20
157.9999999999999
 30
0.0
 11
11.50000000000017
 21
9.999999999999972
 31
0.0
  0
LINE
  5
53
330
D67
100
AcDbEntity
  8
0
370
     0
100
AcDbLine
 10
263.5000000000002
 20
9.999999999999902
 30
0.0
 11
263.5000000000002
 21
157.9999999999999
 31
0.0
  0
MTEXT
  5
54
330
D67
100
AcDbEntity
  8
remarks
370
    25
100
AcDbMText
 10
121.7677292263611
 20
111.748746418338
 30
0.0
 40
5.0
 41
100.0
 46
0.0
 71
     1
 72
     1
  1
Deckel:\pAluminium 5mm,\pschwarz eloxiert\p(Ränder nicht blank).
  7
textstyle11
 73
     1
 44
1.0
  0
MTEXT
  5
57
330
D67
100
AcDbEntity
  8
labels
 62
    51
420
 16187201
100
AcDbMText
 10
109.3694919932184
 20
89.36803314238728
 30
0.0
 40
20.0
 41
100.0
 46
0.0
 71
     5
 72
     1
  1
Suska-III-C
  7
textstyle12
 11
0.8660254037844387
 21
0.4999999999999998
 31
0.0
 73
     1
 44
1.0
  0
LINE
  5
58
330
D67
100
AcDbEntity
  8
board
100
AcDbLine
 10
19.50000000000017
 20
13.99999999999994
 30
0.0
 11
255.5000000000002
 21
13.99999999999994
 31
0.0
  0
LINE
  5
59
330
D67
100
AcDbEntity
  8
board
100
AcDbLine
 10
255.5000000000002
 20
13.99999999999994
 30
0.0
 11
255.5000000000002
 21
153.9999999999999
 31
0.0
  0
LINE
  5
5A
330
D67
100
AcDbEntity
  8
board
100
AcDbLine
 10
255.5000000000002
 20
153.9999999999999
 30
0.0
 11
19.50000000000017
 21
153.9999999999999
 31
0.0
  0
LINE
  5
5B
330
D67
100
AcDbEntity
  8
board
100
AcDbLine
 10
19.50000000000017
 20
153.9999999999999
 30
0.0
 11
19.50000000000017
 21
13.99999999999994
 31
0.0
  0
MTEXT
  5
5D
330
D67
100
AcDbEntity
  8
labels
 62
    51
420
 16187201
100
AcDbMText
 10
244.5813464235626
 20
129.9999999999998
 30
0.0
 40
3.0
 41
100.0
 46
0.0
 71
     5
 72
     1
  1
PS2-K
  7
textstyle13
 11
6.123233995736766E-17
 21
1.0
 31
0.0
 73
     1
 44
1.0
  0
MTEXT
  5
5E
330
D67
100
AcDbEntity
  8
labels
 62
    51
420
 16187201
100
AcDbMText
 10
244.5813464235626
 20
100.0
 30
0.0
 40
3.0
 41
100.0
 46
0.0
 71
     5
 72
     1
  1
Ethernet
  7
textstyle14
 11
6.123233995736766E-17
 21
1.0
 31
0.0
 73
     1
 44
1.0
  0
MTEXT
  5
5F
330
D67
100
AcDbEntity
  8
labels
 62
    51
420
 16187201
100
AcDbMText
 10
244.5813464235626
 20
72.99999999999994
 30
0.0
 40
3.0
 41
100.0
 46
0.0
 71
     5
 72
     1
  1
Power
  7
textstyle15
 11
6.123233995736766E-17
 21
1.0
 31
0.0
 73
     1
 44
1.0
  0
MTEXT
  5
60
330
D67
100
AcDbEntity
  8
labels
 62
    51
420
 16187201
100
AcDbMText
 10
197.5000000000002
 20
16.85553997194915
 30
0.0
 40
3.0
 41
100.0
 46
0.0
 71
     5
 72
     1
  1
CF-Card
  7
textstyle16
 73
     1
 44
1.0
  0
MTEXT
  5
61
330
D67
100
AcDbEntity
  8
labels
 62
    51
420
 16187201
100
AcDbMText
 10
246.5000000000002
 20
16.85553997194932
 30
0.0
 40
3.0
 41
100.0
 46
0.0
 71
     5
 72
     1
  1
RS232
  7
textstyle17
 73
     1
 44
1.0
  0
MTEXT
  5
62
330
D67
100
AcDbEntity
  8
labels
 62
    51
420
 16187201
100
AcDbMText
 10
106.4163555791969
 20
25.37074100365649
 30
0.0
 40
3.0
 41
100.0
 46
0.0
 71
     9
 72
     1
  1
S/PDIF-In
  7
textstyle18
 11
0.8660254037844387
 21
0.4999999999999998
 31
0.0
 73
     1
 44
1.0
  0
MTEXT
  5
63
330
D67
100
AcDbEntity
  8
labels
 62
    51
420
 16187201
100
AcDbMText
 10
122.9163555791969
 20
27.22953567444585
 30
0.0
 40
3.0
 41
100.0
 46
0.0
 71
     9
 72
     1
  1
S/PDIF-Out
  7
textstyle19
 11
0.8660254037844387
 21
0.4999999999999998
 31
0.0
 73
     1
 44
1.0
  0
MTEXT
  5
64
330
D67
100
AcDbEntity
  8
labels
 62
    51
420
 16187201
100
AcDbMText
 10
131.2223929403078
 20
24.74433489148111
 30
0.0
 40
3.0
 41
100.0
 46
0.0
 71
     9
 72
     1
  1
Line-Out
  7
textstyle20
 11
0.8660254037844387
 21
0.4999999999999998
 31
0.0
 73
     1
 44
1.0
  0
MTEXT
  5
65
330
D67
100
AcDbEntity
  8
labels
 62
    51
420
 16187201
100
AcDbMText
 10
142.4919183813616
 20
24.06753158721307
 30
0.0
 40
3.0
 41
100.0
 46
0.0
 71
     9
 72
     1
  1
Mic-In 2
  7
textstyle21
 11
0.8660254037844387
 21
0.4999999999999998
 31
0.0
 73
     1
 44
1.0
  0
MTEXT
  5
66
330
D67
100
AcDbEntity
  8
labels
 62
    51
420
 16187201
100
AcDbMText
 10
154.2756274313388
 20
23.61984974344852
 30
0.0
 40
3.0
 41
100.0
 46
0.0
 71
     9
 72
     1
  1
Mic-In 1
  7
textstyle22
 11
0.8660254037844387
 21
0.4999999999999998
 31
0.0
 73
     1
 44
1.0
  0
MTEXT
  5
67
330
D67
100
AcDbEntity
  8
labels
 62
    51
420
 16187201
100
AcDbMText
 10
165.8327752574008
 20
22.94319105904944
 30
0.0
 40
3.0
 41
100.0
 46
0.0
 71
     9
 72
     1
  1
Line-In
  7
textstyle23
 11
0.8660254037844387
 21
0.4999999999999998
 31
0.0
 73
     1
 44
1.0
  0
MTEXT
  5
68
330
D67
100
AcDbEntity
  8
labels
 62
    51
420
 16187201
100
AcDbMText
 10
175.5000000000002
 20
21.14713305231791
 30
0.0
 40
3.0
 41
100.0
 46
0.0
 71
     9
 72
     1
  1
CD-In
  7
textstyle24
 11
0.8660254037844387
 21
0.4999999999999998
 31
0.0
 73
     1
 44
1.0
  0
MTEXT
  5
69
330
D67
100
AcDbEntity
  8
labels
 62
    51
420
 16187201
100
AcDbMText
 10
88.00000000000013
 20
25.80664678002938
 30
0.0
 40
3.0
 41
100.0
 46
0.0
 71
     9
 72
     1
  1
On/Reset
  7
textstyle25
 11
0.8660254037844387
 21
0.4999999999999998
 31
0.0
 73
     1
 44
1.0
  0
MTEXT
  5
6A
330
D67
100
AcDbEntity
  8
labels
 62
    51
420
 16187201
100
AcDbMText
 10
22.39340813464254
 20
106.9999999999999
 30
0.0
 40
3.0
 41
100.0
 46
0.0
 71
     5
 72
     1
  1
MIDI-In
  7
textstyle26
 11
-1.836970198721030E-16
 21
-1.0
 31
0.0
 73
     1
 44
1.0
  0
MTEXT
  5
6C
330
D67
100
AcDbEntity
  8
labels
 62
    51
420
 16187201
100
AcDbMText
 10
22.39340813464254
 20
79.99999999999932
 30
0.0
 40
3.0
 41
100.0
 46
0.0
 71
     5
 72
     1
  1
Joyport\~2
  7
textstyle27
 11
-1.836970198721030E-16
 21
-1.0
 31
0.0
 73
     1
 44
1.0
  0
MTEXT
  5
6D
330
D67
100
AcDbEntity
  8
labels
 62
    51
420
 16187201
100
AcDbMText
 10
22.39340813464254
 20
48.99999999999991
 30
0.0
 40
3.0
 41
100.0
 46
0.0
 71
     5
 72
     1
  1
Joyport\~1
  7
textstyle28
 11
-1.836970198721030E-16
 21
-1.0
 31
0.0
 73
     1
 44
1.0
  0
MTEXT
  5
6E
330
D67
100
AcDbEntity
  8
labels
 62
    51
420
 16187201
100
AcDbMText
 10
46.00000000000018
 20
150.7875175315568
 30
0.0
 40
3.0
 41
100.0
 46
0.0
 71
     5
 72
     1
  1
Printer
  7
textstyle29
 11
-1.0
 21
1.224646799147353E-16
 31
0.0
 73
     1
 44
1.0
  0
MTEXT
  5
6F
330
D67
100
AcDbEntity
  8
labels
 62
    51
420
 16187201
100
AcDbMText
 10
90.00000000000014
 20
150.7875175315568
 30
0.0
 40
3.0
 41
100.0
 46
0.0
 71
     5
 72
     1
  1
Floppy
  7
textstyle30
 11
-1.0
 21
1.224646799147353E-16
 31
0.0
 73
     1
 44
1.0
  0
MTEXT
  5
70
330
D67
100
AcDbEntity
  8
labels
 62
    51
420
 16187201
100
AcDbMText
 10
122.0000000000002
 20
150.7875175315568
 30
0.0
 40
3.0
 41
100.0
 46
0.0
 71
     5
 72
     1
  1
Monitor
  7
textstyle31
 11
-1.0
 21
1.224646799147353E-16
 31
0.0
 73
     1
 44
1.0
  0
MTEXT
  5
71
330
D67
100
AcDbEntity
  8
labels
 62
    51
420
 16187201
100
AcDbMText
 10
149.5000000000002
 20
150.7875175315568
 30
0.0
 40
3.0
 41
100.0
 46
0.0
 71
     5
 72
     1
  1
Monitor
  7
textstyle32
 11
-1.0
 21
1.224646799147353E-16
 31
0.0
 73
     1
 44
1.0
  0
MTEXT
  5
72
330
D67
100
AcDbEntity
  8
labels
 62
    51
420
 16187201
100
AcDbMText
 10
188.5000000000002
 20
150.7875175315568
 30
0.0
 40
3.0
 41
100.0
 46
0.0
 71
     5
 72
     1
  1
SCSI
  7
textstyle33
 11
-1.0
 21
1.224646799147353E-16
 31
0.0
 73
     1
 44
1.0
  0
MTEXT
  5
73
330
D67
100
AcDbEntity
  8
labels
 62
    51
420
 16187201
100
AcDbMText
 10
235.5000000000002
 20
150.7875175315567
 30
0.0
 40
3.0
 41
100.0
 46
0.0
 71
     5
 72
     1
  1
ACSI
  7
textstyle34
 11
-1.0
 21
1.224646799147353E-16
 31
0.0
 73
     1
 44
1.0
  0
MTEXT
  5
74
330
D67
100
AcDbEntity
  8
labels
 62
    51
420
 16187201
100
AcDbMText
 10
252.5813464235626
 20
117.9999999999999
 30
0.0
 40
3.0
 41
100.0
 46
0.0
 71
     5
 72
     1
  1
PS2-M
  7
textstyle35
 11
6.123233995736766E-17
 21
1.0
 31
0.0
 73
     1
 44
1.0
  0
MTEXT
  5
75
330
D67
100
AcDbEntity
  8
labels
 62
    51
420
 16187201
100
AcDbMText
 10
22.39340813464254
 20
127.9999999999999
 30
0.0
 40
3.0
 41
100.0
 46
0.0
 71
     5
 72
     1
  1
MIDI-Out
  7
textstyle36
 11
-1.836970198721030E-16
 21
-1.0
 31
0.0
 73
     1
 44
1.0
  0
MTEXT
  5
76
330
D67
100
AcDbEntity
  8
labels
 62
    51
420
 16187201
100
AcDbMText
 10
229.5000000000001
 20
16.85553997194951
 30
0.0
 40
3.0
 41
100.0
 46
0.0
 71
     5
 72
     1
  1
USB
  7
textstyle37
 73
     1
 44
1.0
  0
MTEXT
  5
77
330
D67
100
AcDbEntity
  8
labels
 62
    51
420
 16187201
100
AcDbMText
 10
252.5813464235626
 20
85.99999999999983
 30
0.0
 40
3.0
 41
100.0
 46
0.0
 71
     5
 72
     1
  1
Atari-Kbd
  7
textstyle38
 11
6.123233995736766E-17
 21
1.0
 31
0.0
 73
     1
 44
1.0
  0
MTEXT
  5
78
330
D67
100
AcDbEntity
  8
labels
 62
    51
420
 16187201
100
AcDbMText
 10
252.5813464235626
 20
51.99999999999983
 30
0.0
 40
3.0
 41
100.0
 46
0.0
 71
     5
 72
     1
  1
ROM-Port
  7
textstyle39
 11
6.123233995736766E-17
 21
1.0
 31
0.0
 73
     1
 44
1.0
  0
LINE
  5
7E
330
D67
100
AcDbEntity
  8
milling
100
AcDbLine
 10
255.5000000000002
 20
153.9999999999999
 30
0.0
 11
19.50000000000017
 21
153.9999999999999
 31
0.0
  0
LINE
  5
7F
330
D67
100
AcDbEntity
  8
milling
100
AcDbLine
 10
257.0000000000002
 20
155.4999999999999
 30
0.0
 11
18.00000000000017
 21
155.4999999999999
 31
0.0
  0
LINE
  5
80
330
D67
100
AcDbEntity
  8
milling
100
AcDbLine
 10
19.50000000000017
 20
13.99999999999994
 30
0.0
 11
255.5000000000002
 21
13.99999999999994
 31
0.0
  0
LINE
  5
81
330
D67
100
AcDbEntity
  8
milling
100
AcDbLine
 10
18.00000000000017
 20
12.49999999999994
 30
0.0
 11
257.0000000000002
 21
12.49999999999994
 31
0.0
  0
LINE
  5
82
330
D67
100
AcDbEntity
  8
milling
100
AcDbLine
 10
19.50000000000017
 20
153.9999999999999
 30
0.0
 11
19.50000000000017
 21
13.99999999999991
 31
0.0
  0
LINE
  5
83
330
D67
100
AcDbEntity
  8
milling
100
AcDbLine
 10
18.00000000000017
 20
153.9999999999999
 30
0.0
 11
18.00000000000017
 21
14.00000000000134
 31
0.0
  0
LINE
  5
84
330
D67
100
AcDbEntity
  8
milling
100
AcDbLine
 10
255.5000000000002
 20
13.99999999999994
 30
0.0
 11
255.5000000000002
 21
153.9999999999999
 31
0.0
  0
LINE
  5
85
330
D67
100
AcDbEntity
  8
milling
100
AcDbLine
 10
257.0000000000002
 20
13.99999999999994
 30
0.0
 11
257.0000000000002
 21
154.0000000000017
 31
0.0
  0
CIRCLE
  5
86
330
D67
100
AcDbEntity
  8
labels
 62
    51
420
 16187201
100
AcDbCircle
 10
17.50000000000017
 20
155.9999999999999
 30
0.0
 40
0.0
  0
ARC
  5
88
330
D67
100
AcDbEntity
  8
milling
100
AcDbCircle
 10
18.00000000000017
 20
154.7499999999999
 30
0.0
 40
0.75
100
AcDbArc
 50
90.0
 51
270.0
  0
ARC
  5
89
330
D67
100
AcDbEntity
  8
milling
100
AcDbCircle
 10
18.00000000000017
 20
13.24999999999994
 30
0.0
 40
0.75
100
AcDbArc
 50
90.0
 51
270.0
  0
ARC
  5
8A
330
D67
100
AcDbEntity
  8
milling
100
AcDbCircle
 10
257.0000000000002
 20
13.24999999999994
 30
0.0
 40
0.75
100
AcDbArc
 50
270.0
 51
89.99999999999999
  0
ARC
  5
8B
330
D67
100
AcDbEntity
  8
milling
100
AcDbCircle
 10
257.0000000000002
 20
154.7499999999999
 30
0.0
 40
0.75
100
AcDbArc
 50
270.0
 51
89.99999999999999
  0
LINE
  5
90
330
D67
100
AcDbEntity
  8
milling-center
100
AcDbLine
 10
257.0000000000002
 20
154.75
 30
0.0
 11
18.00000000000017
 21
154.7499999999999
 31
0.0
  0
LINE
  5
97
330
D67
100
AcDbEntity
  8
milling-center
100
AcDbLine
 10
256.2500000000002
 20
153.9999999999999
 30
0.0
 11
256.2500000000002
 21
13.99999999999994
 31
0.0
  0
LINE
  5
98
330
D67
100
AcDbEntity
  8
milling-center
100
AcDbLine
 10
257.0000000000002
 20
13.24999999999994
 30
0.0
 11
18.00000000000017
 21
13.24999999999982
 31
0.0
  0
LINE
  5
99
330
D67
100
AcDbEntity
  8
milling-center
100
AcDbLine
 10
18.75000000000017
 20
13.99999999999969
 30
0.0
 11
18.75000000000017
 21
153.9999999999999
 31
0.0
  0
ARC
  5
9C
330
D67
100
AcDbEntity
  8
milling-center
100
AcDbCircle
 10
18.00000000000017
 20
153.9999999999999
 30
0.0
 40
0.75
100
AcDbArc
 50
0.0
 51
90.0
  0
ARC
  5
A1
330
D67
100
AcDbEntity
  8
milling-center
100
AcDbCircle
 10
18.00000000000017
 20
13.99999999999969
 30
0.0
 40
0.75
100
AcDbArc
 50
270.0
 51
0.0
  0
ARC
  5
A4
330
D67
100
AcDbEntity
  8
milling-center
100
AcDbCircle
 10
257.0000000000002
 20
13.99999999999994
 30
0.0
 40
0.75
100
AcDbArc
 50
180.0
 51
270.0
  0
ARC
  5
A9
330
D67
100
AcDbEntity
  8
milling-center
100
AcDbCircle
 10
257.0000000000002
 20
153.9999999999999
 30
0.0
 40
0.7500000000001137
100
AcDbArc
 50
90.0
 51
180.0
  0
CIRCLE
  5
5E9
330
D67
100
AcDbEntity
  8
accesoires
100
AcDbCircle
 10
259.6213203435599
 20
158.1213203435595
 30
0.0
 40
3.0
  0
CIRCLE
  5
5EA
330
D67
100
AcDbEntity
  8
accesoires
100
AcDbCircle
 10
259.6213203435599
 20
9.878679656440298
 30
0.0
 40
3.0
  0
CIRCLE
  5
5EB
330
D67
100
AcDbEntity
  8
accesoires
100
AcDbCircle
 10
15.37867965644053
 20
9.878679656440298
 30
0.0
 40
3.0
  0
CIRCLE
  5
5EC
330
D67
100
AcDbEntity
  8
accesoires
100
AcDbCircle
 10
15.37867965644053
 20
158.1213203435595
 30
0.0
 40
3.0
  0
ARC
  5
5F4
330
D67
100
AcDbEntity
  8
0
100
AcDbCircle
 10
15.50000000000017
 20
9.999999999999977
 30
0.0
 40
4.0
100
AcDbArc
 50
180.0
 51
269.9999999999999
  0
ARC
  5
5F5
330
D67
100
AcDbEntity
  8
0
100
AcDbCircle
 10
15.50000000000017
 20
157.9999999999999
 30
0.0
 40
4.0
100
AcDbArc
 50
90.0
 51
180.0
  0
ARC
  5
5F6
330
D67
100
AcDbEntity
  8
0
100
AcDbCircle
 10
259.5000000000002
 20
157.9999999999999
 30
0.0
 40
4.0
100
AcDbArc
 50
0.0
 51
90.0
  0
ARC
  5
5F7
330
D67
100
AcDbEntity
  8
0
100
AcDbCircle
 10
259.5000000000002
 20
9.999999999999902
 30
0.0
 40
4.0
100
AcDbArc
 50
270.0
 51
0.0
  0
CIRCLE
  5
5F9
330
D67
100
AcDbEntity
  8
holes
100
AcDbCircle
 10
15.37867965644053
 20
9.878679656440298
 30
0.0
 40
1.5
  0
CIRCLE
  5
5FA
330
D67
100
AcDbEntity
  8
holes
100
AcDbCircle
 10
259.6213203435599
 20
9.878679656440298
 30
0.0
 40
1.5
  0
CIRCLE
  5
5FB
330
D67
100
AcDbEntity
  8
holes
100
AcDbCircle
 10
259.6213203435599
 20
158.1213203435595
 30
0.0
 40
1.5
  0
CIRCLE
  5
5FC
330
D67
100
AcDbEntity
  8
holes
100
AcDbCircle
 10
15.37867965644053
 20
158.1213203435595
 30
0.0
 40
1.5
  0
LINE
  5
5FE
330
D67
100
AcDbEntity
  8
labels
 62
    51
420
 16187201
100
AcDbLine
 10
201.8434104585602
 20
60.23229977826271
 30
0.0
 11
201.8434104585602
 21
60.84560127826271
 31
0.0
  0
LINE
  5
5FF
330
D67
100
AcDbEntity
  8
labels
 62
    51
420
 16187201
100
AcDbLine
 10
201.8434104585602
 20
60.84560127826271
 30
0.0
 11
203.0800458585601
 21
60.84560127826271
 31
0.0
  0
LINE
  5
600
330
D67
100
AcDbEntity
  8
labels
 62
    51
420
 16187201
100
AcDbLine
 10
203.0800458585601
 20
60.84560127826271
 30
0.0
 11
203.0800458585601
 21
61.58128027826272
 31
0.0
  0
LINE
  5
601
330
D67
100
AcDbEntity
  8
labels
 62
    51
420
 16187201
100
AcDbLine
 10
203.0800458585601
 20
61.58128027826272
 30
0.0
 11
202.7091064085601
 21
61.58128027826272
 31
0.0
  0
LINE
  5
602
330
D67
100
AcDbEntity
  8
labels
 62
    51
420
 16187201
100
AcDbLine
 10
202.7091064085601
 20
61.58128027826272
 30
0.0
 11
202.7091064085601
 21
62.07185077826269
 31
0.0
  0
LINE
  5
603
330
D67
100
AcDbEntity
  8
labels
 62
    51
420
 16187201
100
AcDbLine
 10
202.7091064085601
 20
62.07185077826269
 30
0.0
 11
201.9672222585602
 21
62.07185077826269
 31
0.0
  0
LINE
  5
604
330
D67
100
AcDbEntity
  8
labels
 62
    51
420
 16187201
100
AcDbLine
 10
201.9672222585602
 20
62.07185077826269
 30
0.0
 11
201.9672222585602
 21
64.76969977826269
 31
0.0
  0
LINE
  5
605
330
D67
100
AcDbEntity
  8
labels
 62
    51
420
 16187201
100
AcDbLine
 10
201.9672222585602
 20
64.76969977826269
 30
0.0
 11
202.7091064085601
 21
64.76969977826269
 31
0.0
  0
LINE
  5
606
330
D67
100
AcDbEntity
  8
labels
 62
    51
420
 16187201
100
AcDbLine
 10
202.7091064085601
 20
64.76969977826269
 30
0.0
 11
202.7091064085601
 21
65.2602737782627
 31
0.0
  0
LINE
  5
607
330
D67
100
AcDbEntity
  8
labels
 62
    51
420
 16187201
100
AcDbLine
 10
202.7091064085601
 20
65.2602737782627
 30
0.0
 11
205.1817090585601
 21
65.2602737782627
 31
0.0
  0
LINE
  5
608
330
D67
100
AcDbEntity
  8
labels
 62
    51
420
 16187201
100
AcDbLine
 10
205.1817090585601
 20
65.2602737782627
 30
0.0
 11
205.1817090585601
 21
64.76969977826269
 31
0.0
  0
LINE
  5
609
330
D67
100
AcDbEntity
  8
labels
 62
    51
420
 16187201
100
AcDbLine
 10
205.1817090585601
 20
64.76969977826269
 30
0.0
 11
205.7999445085601
 21
64.76969977826269
 31
0.0
  0
LINE
  5
60A
330
D67
100
AcDbEntity
  8
labels
 62
    51
420
 16187201
100
AcDbLine
 10
205.7999445085601
 20
64.76969977826269
 30
0.0
 11
205.7999445085601
 21
62.07185077826269
 31
0.0
  0
LINE
  5
60B
330
D67
100
AcDbEntity
  8
labels
 62
    51
420
 16187201
100
AcDbLine
 10
205.7999445085601
 20
62.07185077826269
 30
0.0
 11
205.1817090585601
 21
62.07185077826269
 31
0.0
  0
LINE
  5
60C
330
D67
100
AcDbEntity
  8
labels
 62
    51
420
 16187201
100
AcDbLine
 10
205.1817090585601
 20
62.07185077826269
 30
0.0
 11
205.1817090585601
 21
61.58128027826272
 31
0.0
  0
LINE
  5
60D
330
D67
100
AcDbEntity
  8
labels
 62
    51
420
 16187201
100
AcDbLine
 10
205.1817090585601
 20
61.58128027826272
 30
0.0
 11
204.8109313085601
 21
61.58128027826272
 31
0.0
  0
LINE
  5
60E
330
D67
100
AcDbEntity
  8
labels
 62
    51
420
 16187201
100
AcDbLine
 10
204.8109313085601
 20
61.58128027826272
 30
0.0
 11
204.8109313085601
 21
60.84560127826271
 31
0.0
  0
LINE
  5
60F
330
D67
100
AcDbEntity
  8
labels
 62
    51
420
 16187201
100
AcDbLine
 10
204.8109313085601
 20
60.84560127826271
 30
0.0
 11
205.9235890085602
 21
60.84560127826271
 31
0.0
  0
LINE
  5
610
330
D67
100
AcDbEntity
  8
labels
 62
    51
420
 16187201
100
AcDbLine
 10
205.9235890085602
 20
60.84560127826271
 30
0.0
 11
205.9235890085602
 21
60.23229977826271
 31
0.0
  0
LINE
  5
611
330
D67
100
AcDbEntity
  8
labels
 62
    51
420
 16187201
100
AcDbLine
 10
205.9235890085602
 20
60.23229977826271
 30
0.0
 11
204.1926972585601
 21
60.23229977826271
 31
0.0
  0
LINE
  5
612
330
D67
100
AcDbEntity
  8
labels
 62
    51
420
 16187201
100
AcDbLine
 10
204.1926972585601
 20
60.23229977826271
 30
0.0
 11
204.1926972585601
 21
61.58128027826272
 31
0.0
  0
LINE
  5
613
330
D67
100
AcDbEntity
  8
labels
 62
    51
420
 16187201
100
AcDbLine
 10
204.1926972585601
 20
61.58128027826272
 30
0.0
 11
203.6981129585601
 21
61.58128027826272
 31
0.0
  0
LINE
  5
614
330
D67
100
AcDbEntity
  8
labels
 62
    51
420
 16187201
100
AcDbLine
 10
203.6981129585601
 20
61.58128027826272
 30
0.0
 11
203.6981129585601
 21
60.23229977826271
 31
0.0
  0
LINE
  5
615
330
D67
100
AcDbEntity
  8
labels
 62
    51
420
 16187201
100
AcDbLine
 10
203.6981129585601
 20
60.23229977826271
 30
0.0
 11
201.8434104585602
 21
60.23229977826271
 31
0.0
  0
LINE
  5
616
330
D67
100
AcDbEntity
  8
labels
 62
    51
420
 16187201
100
AcDbLine
 10
202.8327509085601
 20
63.78870227826267
 30
0.0
 11
203.5746249085602
 21
63.78870227826267
 31
0.0
  0
LINE
  5
617
330
D67
100
AcDbEntity
  8
labels
 62
    51
420
 16187201
100
AcDbLine
 10
203.5746249085602
 20
63.78870227826267
 30
0.0
 11
203.5746249085602
 21
62.93028877826266
 31
0.0
  0
LINE
  5
618
330
D67
100
AcDbEntity
  8
labels
 62
    51
420
 16187201
100
AcDbLine
 10
203.5746249085602
 20
62.93028877826266
 30
0.0
 11
202.8327509085601
 21
62.93028877826266
 31
0.0
  0
LINE
  5
619
330
D67
100
AcDbEntity
  8
labels
 62
    51
420
 16187201
100
AcDbLine
 10
202.8327509085601
 20
62.93028877826266
 30
0.0
 11
202.8327509085601
 21
63.78870227826267
 31
0.0
  0
LINE
  5
61A
330
D67
100
AcDbEntity
  8
labels
 62
    51
420
 16187201
100
AcDbLine
 10
204.0690524085602
 20
63.78870227826267
 30
0.0
 11
204.8109313085601
 21
63.78870227826267
 31
0.0
  0
LINE
  5
61B
330
D67
100
AcDbEntity
  8
labels
 62
    51
420
 16187201
100
AcDbLine
 10
204.8109313085601
 20
63.78870227826267
 30
0.0
 11
204.8109313085601
 21
62.93028877826266
 31
0.0
  0
LINE
  5
61C
330
D67
100
AcDbEntity
  8
labels
 62
    51
420
 16187201
100
AcDbLine
 10
204.8109313085601
 20
62.93028877826266
 30
0.0
 11
204.0690524085602
 21
62.93028877826266
 31
0.0
  0
LINE
  5
61D
330
D67
100
AcDbEntity
  8
labels
 62
    51
420
 16187201
100
AcDbLine
 10
204.0690524085602
 20
62.93028877826266
 30
0.0
 11
204.0690524085602
 21
63.78870227826267
 31
0.0
  0
LINE
  5
61E
330
D67
100
AcDbEntity
  8
labels
 62
    51
420
 16187201
100
AcDbLine
 10
201.9672222585602
 20
64.76969977826269
 30
0.0
 11
202.7091064085601
 21
64.76969977826269
 31
0.0
  0
LINE
  5
61F
330
D67
100
AcDbEntity
  8
labels
 62
    51
420
 16187201
100
AcDbLine
 10
202.7091064085601
 20
64.76969977826269
 30
0.0
 11
202.7091064085601
 21
65.2602737782627
 31
0.0
  0
LINE
  5
620
330
D67
100
AcDbEntity
  8
labels
 62
    51
420
 16187201
100
AcDbLine
 10
202.7091064085601
 20
65.2602737782627
 30
0.0
 11
205.1817090585601
 21
65.2602737782627
 31
0.0
  0
LINE
  5
621
330
D67
100
AcDbEntity
  8
labels
 62
    51
420
 16187201
100
AcDbLine
 10
205.1817090585601
 20
65.2602737782627
 30
0.0
 11
205.1817090585601
 21
64.76969977826269
 31
0.0
  0
LINE
  5
622
330
D67
100
AcDbEntity
  8
labels
 62
    51
420
 16187201
100
AcDbLine
 10
205.1817090585601
 20
64.76969977826269
 30
0.0
 11
205.7999445085601
 21
64.76969977826269
 31
0.0
  0
LINE
  5
623
330
D67
100
AcDbEntity
  8
labels
 62
    51
420
 16187201
100
AcDbLine
 10
205.7999445085601
 20
64.76969977826269
 30
0.0
 11
205.7999445085601
 21
62.07185077826269
 31
0.0
  0
LINE
  5
624
330
D67
100
AcDbEntity
  8
labels
 62
    51
420
 16187201
100
AcDbLine
 10
205.7999445085601
 20
62.07185077826269
 30
0.0
 11
205.1817090585601
 21
62.07185077826269
 31
0.0
  0
LINE
  5
625
330
D67
100
AcDbEntity
  8
labels
 62
    51
420
 16187201
100
AcDbLine
 10
205.1817090585601
 20
62.07185077826269
 30
0.0
 11
205.1817090585601
 21
61.58128027826272
 31
0.0
  0
LINE
  5
626
330
D67
100
AcDbEntity
  8
labels
 62
    51
420
 16187201
100
AcDbLine
 10
205.1817090585601
 20
61.58128027826272
 30
0.0
 11
204.8109313085601
 21
61.58128027826272
 31
0.0
  0
LINE
  5
627
330
D67
100
AcDbEntity
  8
labels
 62
    51
420
 16187201
100
AcDbLine
 10
204.8109313085601
 20
61.58128027826272
 30
0.0
 11
204.8109313085601
 21
60.84560127826271
 31
0.0
  0
LINE
  5
628
330
D67
100
AcDbEntity
  8
labels
 62
    51
420
 16187201
100
AcDbLine
 10
204.8109313085601
 20
60.84560127826271
 30
0.0
 11
205.9235890085602
 21
60.84560127826271
 31
0.0
  0
LINE
  5
629
330
D67
100
AcDbEntity
  8
labels
 62
    51
420
 16187201
100
AcDbLine
 10
205.9235890085602
 20
60.84560127826271
 30
0.0
 11
205.9235890085602
 21
60.23229977826271
 31
0.0
  0
LINE
  5
62A
330
D67
100
AcDbEntity
  8
labels
 62
    51
420
 16187201
100
AcDbLine
 10
205.9235890085602
 20
60.23229977826271
 30
0.0
 11
204.1926972585601
 21
60.23229977826271
 31
0.0
  0
LINE
  5
62B
330
D67
100
AcDbEntity
  8
labels
 62
    51
420
 16187201
100
AcDbLine
 10
204.1926972585601
 20
60.23229977826271
 30
0.0
 11
204.1926972585601
 21
61.58128027826272
 31
0.0
  0
LINE
  5
62C
330
D67
100
AcDbEntity
  8
labels
 62
    51
420
 16187201
100
AcDbLine
 10
204.1926972585601
 20
61.58128027826272
 30
0.0
 11
203.6981129585601
 21
61.58128027826272
 31
0.0
  0
LINE
  5
62D
330
D67
100
AcDbEntity
  8
labels
 62
    51
420
 16187201
100
AcDbLine
 10
203.6981129585601
 20
61.58128027826272
 30
0.0
 11
203.6981129585601
 21
60.23229977826271
 31
0.0
  0
LINE
  5
62E
330
D67
100
AcDbEntity
  8
labels
 62
    51
420
 16187201
100
AcDbLine
 10
203.6981129585601
 20
60.23229977826271
 30
0.0
 11
201.8434104585602
 21
60.23229977826271
 31
0.0
  0
LINE
  5
62F
330
D67
100
AcDbEntity
  8
labels
 62
    51
420
 16187201
100
AcDbLine
 10
201.8434104585602
 20
60.23229977826271
 30
0.0
 11
201.8434104585602
 21
60.84560127826271
 31
0.0
  0
LINE
  5
630
330
D67
100
AcDbEntity
  8
labels
 62
    51
420
 16187201
100
AcDbLine
 10
201.8434104585602
 20
60.84560127826271
 30
0.0
 11
203.0800458585601
 21
60.84560127826271
 31
0.0
  0
LINE
  5
631
330
D67
100
AcDbEntity
  8
labels
 62
    51
420
 16187201
100
AcDbLine
 10
203.0800458585601
 20
60.84560127826271
 30
0.0
 11
203.0800458585601
 21
61.58128027826272
 31
0.0
  0
LINE
  5
632
330
D67
100
AcDbEntity
  8
labels
 62
    51
420
 16187201
100
AcDbLine
 10
203.0800458585601
 20
61.58128027826272
 30
0.0
 11
202.7091064085601
 21
61.58128027826272
 31
0.0
  0
LINE
  5
633
330
D67
100
AcDbEntity
  8
labels
 62
    51
420
 16187201
100
AcDbLine
 10
202.7091064085601
 20
61.58128027826272
 30
0.0
 11
202.7091064085601
 21
62.07185077826269
 31
0.0
  0
LINE
  5
634
330
D67
100
AcDbEntity
  8
labels
 62
    51
420
 16187201
100
AcDbLine
 10
202.7091064085601
 20
62.07185077826269
 30
0.0
 11
201.9672222585602
 21
62.07185077826269
 31
0.0
  0
LINE
  5
635
330
D67
100
AcDbEntity
  8
labels
 62
    51
420
 16187201
100
AcDbLine
 10
201.9672222585602
 20
62.07185077826269
 30
0.0
 11
201.9672222585602
 21
64.76969977826269
 31
0.0
  0
HATCH
  5
636
330
D67
100
AcDbEntity
  8
labels
 62
    51
420
 16187201
100
AcDbHatch
 10
0.0
 20
0.0
 30
0.0
210
0.0
220
0.0
230
1.0
  2
SOLID
 70
     1
 71
     0
 91
        3
 92
        0
 93
        4
 72
     1
 10
204.0690524085602
 20
62.93028877826266
 11
204.0690524085602
 21
63.78870227826267
 72
     1
 10
204.0690524085602
 20
63.78870227826267
 11
204.8109313085601
 21
63.78870227826267
 72
     1
 10
204.8109313085601
 20
63.78870227826267
 11
204.8109313085601
 21
62.93028877826266
 72
     1
 10
204.8109313085601
 20
62.93028877826266
 11
204.0690524085602
 21
62.93028877826266
 97
        0
 92
        0
 93
       24
 72
     1
 10
205.7999445085601
 20
64.76969977826269
 11
205.7999445085601
 21
62.07185077826269
 72
     1
 10
205.7999445085601
 20
62.07185077826269
 11
205.1817090585601
 21
62.07185077826269
 72
     1
 10
205.1817090585601
 20
62.07185077826269
 11
205.1817090585601
 21
61.58128027826272
 72
     1
 10
205.1817090585601
 20
61.58128027826272
 11
204.8109313085601
 21
61.58128027826272
 72
     1
 10
204.8109313085601
 20
61.58128027826272
 11
204.8109313085601
 21
60.84560127826271
 72
     1
 10
204.8109313085601
 20
60.84560127826271
 11
205.9235890085602
 21
60.84560127826271
 72
     1
 10
205.9235890085602
 20
60.84560127826271
 11
205.9235890085602
 21
60.23229977826271
 72
     1
 10
205.9235890085602
 20
60.23229977826271
 11
204.1926972585601
 21
60.23229977826271
 72
     1
 10
204.1926972585601
 20
60.23229977826271
 11
204.1926972585601
 21
61.58128027826272
 72
     1
 10
204.1926972585601
 20
61.58128027826272
 11
203.6981129585601
 21
61.58128027826272
 72
     1
 10
203.6981129585601
 20
61.58128027826272
 11
203.6981129585601
 21
60.23229977826271
 72
     1
 10
203.6981129585601
 20
60.23229977826271
 11
201.8434104585602
 21
60.23229977826271
 72
     1
 10
201.8434104585602
 20
60.23229977826271
 11
201.8434104585602
 21
60.84560127826271
 72
     1
 10
201.8434104585602
 20
60.84560127826271
 11
203.0800458585601
 21
60.84560127826271
 72
     1
 10
203.0800458585601
 20
60.84560127826271
 11
203.0800458585601
 21
61.58128027826272
 72
     1
 10
203.0800458585601
 20
61.58128027826272
 11
202.7091064085601
 21
61.58128027826272
 72
     1
 10
202.7091064085601
 20
61.58128027826272
 11
202.7091064085601
 21
62.07185077826269
 72
     1
 10
202.7091064085601
 20
62.07185077826269
 11
201.9672222585602
 21
62.07185077826269
 72
     1
 10
201.9672222585602
 20
62.07185077826269
 11
201.9672222585602
 21
64.76969977826269
 72
     1
 10
201.9672222585602
 20
64.76969977826269
 11
202.7091064085601
 21
64.76969977826269
 72
     1
 10
202.7091064085601
 20
64.76969977826269
 11
202.7091064085601
 21
65.2602737782627
 72
     1
 10
202.7091064085601
 20
65.2602737782627
 11
205.1817090585601
 21
65.2602737782627
 72
     1
 10
205.1817090585601
 20
65.2602737782627
 11
205.1817090585601
 21
64.76969977826269
 72
     1
 10
205.1817090585601
 20
64.76969977826269
 11
205.7999445085601
 21
64.76969977826269
 97
        0
 92
        0
 93
        4
 72
     1
 10
202.8327509085601
 20
63.78870227826267
 11
203.5746249085602
 21
63.78870227826267
 72
     1
 10
203.5746249085602
 20
63.78870227826267
 11
203.5746249085602
 21
62.93028877826266
 72
     1
 10
203.5746249085602
 20
62.93028877826266
 11
202.8327509085601
 21
62.93028877826266
 72
     1
 10
202.8327509085601
 20
62.93028877826266
 11
202.8327509085601
 21
63.78870227826267
 97
        0
 75
     0
 76
     1
 98
        0
  0
LINE
  5
637
330
D67
100
AcDbEntity
  8
labels
 62
    51
420
 16187201
100
AcDbLine
 10
211.69909405856
 20
64.76969977826269
 30
0.0
 11
211.69909405856
 21
62.07185077826269
 31
0.0
  0
LINE
  5
638
330
D67
100
AcDbEntity
  8
labels
 62
    51
420
 16187201
100
AcDbLine
 10
211.69909405856
 20
62.07185077826269
 30
0.0
 11
211.08085860856
 21
62.07185077826269
 31
0.0
  0
LINE
  5
639
330
D67
100
AcDbEntity
  8
labels
 62
    51
420
 16187201
100
AcDbLine
 10
211.08085860856
 20
62.07185077826269
 30
0.0
 11
211.08085860856
 21
61.58128027826272
 31
0.0
  0
LINE
  5
63A
330
D67
100
AcDbEntity
  8
labels
 62
    51
420
 16187201
100
AcDbLine
 10
211.08085860856
 20
61.58128027826272
 30
0.0
 11
210.71008085856
 21
61.58128027826272
 31
0.0
  0
LINE
  5
63B
330
D67
100
AcDbEntity
  8
labels
 62
    51
420
 16187201
100
AcDbLine
 10
210.71008085856
 20
61.58128027826272
 30
0.0
 11
210.71008085856
 21
60.84560127826271
 31
0.0
  0
LINE
  5
63C
330
D67
100
AcDbEntity
  8
labels
 62
    51
420
 16187201
100
AcDbLine
 10
210.71008085856
 20
60.84560127826271
 30
0.0
 11
211.8227385585601
 21
60.84560127826271
 31
0.0
  0
LINE
  5
63D
330
D67
100
AcDbEntity
  8
labels
 62
    51
420
 16187201
100
AcDbLine
 10
211.8227385585601
 20
60.84560127826271
 30
0.0
 11
211.8227385585601
 21
60.23229977826271
 31
0.0
  0
LINE
  5
63E
330
D67
100
AcDbEntity
  8
labels
 62
    51
420
 16187201
100
AcDbLine
 10
211.8227385585601
 20
60.23229977826271
 30
0.0
 11
210.09184680856
 21
60.23229977826271
 31
0.0
  0
LINE
  5
63F
330
D67
100
AcDbEntity
  8
labels
 62
    51
420
 16187201
100
AcDbLine
 10
210.09184680856
 20
60.23229977826271
 30
0.0
 11
210.09184680856
 21
61.58128027826272
 31
0.0
  0
LINE
  5
640
330
D67
100
AcDbEntity
  8
labels
 62
    51
420
 16187201
100
AcDbLine
 10
210.09184680856
 20
61.58128027826272
 30
0.0
 11
209.59726250856
 21
61.58128027826272
 31
0.0
  0
LINE
  5
641
330
D67
100
AcDbEntity
  8
labels
 62
    51
420
 16187201
100
AcDbLine
 10
209.59726250856
 20
61.58128027826272
 30
0.0
 11
209.59726250856
 21
60.23229977826271
 31
0.0
  0
LINE
  5
642
330
D67
100
AcDbEntity
  8
labels
 62
    51
420
 16187201
100
AcDbLine
 10
209.59726250856
 20
60.23229977826271
 30
0.0
 11
207.7425600085601
 21
60.23229977826271
 31
0.0
  0
LINE
  5
643
330
D67
100
AcDbEntity
  8
labels
 62
    51
420
 16187201
100
AcDbLine
 10
208.73190045856
 20
63.78870227826267
 30
0.0
 11
209.4737744585601
 21
63.78870227826267
 31
0.0
  0
LINE
  5
644
330
D67
100
AcDbEntity
  8
labels
 62
    51
420
 16187201
100
AcDbLine
 10
209.4737744585601
 20
63.78870227826267
 30
0.0
 11
209.4737744585601
 21
62.93028877826266
 31
0.0
  0
LINE
  5
645
330
D67
100
AcDbEntity
  8
labels
 62
    51
420
 16187201
100
AcDbLine
 10
209.4737744585601
 20
62.93028877826266
 30
0.0
 11
208.73190045856
 21
62.93028877826266
 31
0.0
  0
LINE
  5
646
330
D67
100
AcDbEntity
  8
labels
 62
    51
420
 16187201
100
AcDbLine
 10
208.73190045856
 20
62.93028877826266
 30
0.0
 11
208.73190045856
 21
63.78870227826267
 31
0.0
  0
LINE
  5
647
330
D67
100
AcDbEntity
  8
labels
 62
    51
420
 16187201
100
AcDbLine
 10
209.9682019585601
 20
63.78870227826267
 30
0.0
 11
210.71008085856
 21
63.78870227826267
 31
0.0
  0
LINE
  5
648
330
D67
100
AcDbEntity
  8
labels
 62
    51
420
 16187201
100
AcDbLine
 10
210.71008085856
 20
63.78870227826267
 30
0.0
 11
210.71008085856
 21
62.93028877826266
 31
0.0
  0
LINE
  5
649
330
D67
100
AcDbEntity
  8
labels
 62
    51
420
 16187201
100
AcDbLine
 10
210.71008085856
 20
62.93028877826266
 30
0.0
 11
209.9682019585601
 21
62.93028877826266
 31
0.0
  0
LINE
  5
64A
330
D67
100
AcDbEntity
  8
labels
 62
    51
420
 16187201
100
AcDbLine
 10
209.9682019585601
 20
62.93028877826266
 30
0.0
 11
209.9682019585601
 21
63.78870227826267
 31
0.0
  0
LINE
  5
64B
330
D67
100
AcDbEntity
  8
labels
 62
    51
420
 16187201
100
AcDbLine
 10
207.8663718085601
 20
64.76969977826269
 30
0.0
 11
208.60825595856
 21
64.76969977826269
 31
0.0
  0
LINE
  5
64C
330
D67
100
AcDbEntity
  8
labels
 62
    51
420
 16187201
100
AcDbLine
 10
208.60825595856
 20
64.76969977826269
 30
0.0
 11
208.60825595856
 21
65.2602737782627
 31
0.0
  0
LINE
  5
64D
330
D67
100
AcDbEntity
  8
labels
 62
    51
420
 16187201
100
AcDbLine
 10
208.60825595856
 20
65.2602737782627
 30
0.0
 11
211.08085860856
 21
65.2602737782627
 31
0.0
  0
LINE
  5
64E
330
D67
100
AcDbEntity
  8
labels
 62
    51
420
 16187201
100
AcDbLine
 10
211.08085860856
 20
65.2602737782627
 30
0.0
 11
211.08085860856
 21
64.76969977826269
 31
0.0
  0
LINE
  5
64F
330
D67
100
AcDbEntity
  8
labels
 62
    51
420
 16187201
100
AcDbLine
 10
211.08085860856
 20
64.76969977826269
 30
0.0
 11
211.69909405856
 21
64.76969977826269
 31
0.0
  0
LINE
  5
650
330
D67
100
AcDbEntity
  8
labels
 62
    51
420
 16187201
100
AcDbLine
 10
211.69909405856
 20
64.76969977826269
 30
0.0
 11
211.69909405856
 21
62.07185077826269
 31
0.0
  0
LINE
  5
651
330
D67
100
AcDbEntity
  8
labels
 62
    51
420
 16187201
100
AcDbLine
 10
211.69909405856
 20
62.07185077826269
 30
0.0
 11
211.08085860856
 21
62.07185077826269
 31
0.0
  0
LINE
  5
652
330
D67
100
AcDbEntity
  8
labels
 62
    51
420
 16187201
100
AcDbLine
 10
211.08085860856
 20
62.07185077826269
 30
0.0
 11
211.08085860856
 21
61.58128027826272
 31
0.0
  0
LINE
  5
653
330
D67
100
AcDbEntity
  8
labels
 62
    51
420
 16187201
100
AcDbLine
 10
211.08085860856
 20
61.58128027826272
 30
0.0
 11
210.71008085856
 21
61.58128027826272
 31
0.0
  0
LINE
  5
654
330
D67
100
AcDbEntity
  8
labels
 62
    51
420
 16187201
100
AcDbLine
 10
210.71008085856
 20
61.58128027826272
 30
0.0
 11
210.71008085856
 21
60.84560127826271
 31
0.0
  0
LINE
  5
655
330
D67
100
AcDbEntity
  8
labels
 62
    51
420
 16187201
100
AcDbLine
 10
210.71008085856
 20
60.84560127826271
 30
0.0
 11
211.8227385585601
 21
60.84560127826271
 31
0.0
  0
LINE
  5
656
330
D67
100
AcDbEntity
  8
labels
 62
    51
420
 16187201
100
AcDbLine
 10
211.8227385585601
 20
60.84560127826271
 30
0.0
 11
211.8227385585601
 21
60.23229977826271
 31
0.0
  0
LINE
  5
657
330
D67
100
AcDbEntity
  8
labels
 62
    51
420
 16187201
100
AcDbLine
 10
211.8227385585601
 20
60.23229977826271
 30
0.0
 11
210.09184680856
 21
60.23229977826271
 31
0.0
  0
LINE
  5
658
330
D67
100
AcDbEntity
  8
labels
 62
    51
420
 16187201
100
AcDbLine
 10
210.09184680856
 20
60.23229977826271
 30
0.0
 11
210.09184680856
 21
61.58128027826272
 31
0.0
  0
LINE
  5
659
330
D67
100
AcDbEntity
  8
labels
 62
    51
420
 16187201
100
AcDbLine
 10
210.09184680856
 20
61.58128027826272
 30
0.0
 11
209.59726250856
 21
61.58128027826272
 31
0.0
  0
LINE
  5
65A
330
D67
100
AcDbEntity
  8
labels
 62
    51
420
 16187201
100
AcDbLine
 10
209.59726250856
 20
61.58128027826272
 30
0.0
 11
209.59726250856
 21
60.23229977826271
 31
0.0
  0
LINE
  5
65B
330
D67
100
AcDbEntity
  8
labels
 62
    51
420
 16187201
100
AcDbLine
 10
209.59726250856
 20
60.23229977826271
 30
0.0
 11
207.7425600085601
 21
60.23229977826271
 31
0.0
  0
LINE
  5
65C
330
D67
100
AcDbEntity
  8
labels
 62
    51
420
 16187201
100
AcDbLine
 10
207.7425600085601
 20
60.23229977826271
 30
0.0
 11
207.7425600085601
 21
60.84560127826271
 31
0.0
  0
LINE
  5
65D
330
D67
100
AcDbEntity
  8
labels
 62
    51
420
 16187201
100
AcDbLine
 10
207.7425600085601
 20
60.84560127826271
 30
0.0
 11
208.97919540856
 21
60.84560127826271
 31
0.0
  0
LINE
  5
65E
330
D67
100
AcDbEntity
  8
labels
 62
    51
420
 16187201
100
AcDbLine
 10
208.97919540856
 20
60.84560127826271
 30
0.0
 11
208.97919540856
 21
61.58128027826272
 31
0.0
  0
LINE
  5
65F
330
D67
100
AcDbEntity
  8
labels
 62
    51
420
 16187201
100
AcDbLine
 10
208.97919540856
 20
61.58128027826272
 30
0.0
 11
208.60825595856
 21
61.58128027826272
 31
0.0
  0
LINE
  5
660
330
D67
100
AcDbEntity
  8
labels
 62
    51
420
 16187201
100
AcDbLine
 10
208.60825595856
 20
61.58128027826272
 30
0.0
 11
208.60825595856
 21
62.07185077826269
 31
0.0
  0
LINE
  5
661
330
D67
100
AcDbEntity
  8
labels
 62
    51
420
 16187201
100
AcDbLine
 10
208.60825595856
 20
62.07185077826269
 30
0.0
 11
207.8663718085601
 21
62.07185077826269
 31
0.0
  0
LINE
  5
662
330
D67
100
AcDbEntity
  8
labels
 62
    51
420
 16187201
100
AcDbLine
 10
207.8663718085601
 20
62.07185077826269
 30
0.0
 11
207.8663718085601
 21
64.76969977826269
 31
0.0
  0
HATCH
  5
663
330
D67
100
AcDbEntity
  8
labels
 62
    51
420
 16187201
100
AcDbHatch
 10
0.0
 20
0.0
 30
0.0
210
0.0
220
0.0
230
1.0
  2
SOLID
 70
     1
 71
     0
 91
        3
 92
        0
 93
        4
 72
     1
 10
209.9682019585601
 20
62.93028877826266
 11
209.9682019585601
 21
63.78870227826267
 72
     1
 10
209.9682019585601
 20
63.78870227826267
 11
210.71008085856
 21
63.78870227826267
 72
     1
 10
210.71008085856
 20
63.78870227826267
 11
210.71008085856
 21
62.93028877826266
 72
     1
 10
210.71008085856
 20
62.93028877826266
 11
209.9682019585601
 21
62.93028877826266
 97
        0
 92
        0
 93
       24
 72
     1
 10
211.69909405856
 20
64.76969977826269
 11
211.69909405856
 21
62.07185077826269
 72
     1
 10
211.69909405856
 20
62.07185077826269
 11
211.08085860856
 21
62.07185077826269
 72
     1
 10
211.08085860856
 20
62.07185077826269
 11
211.08085860856
 21
61.58128027826272
 72
     1
 10
211.08085860856
 20
61.58128027826272
 11
210.71008085856
 21
61.58128027826272
 72
     1
 10
210.71008085856
 20
61.58128027826272
 11
210.71008085856
 21
60.84560127826271
 72
     1
 10
210.71008085856
 20
60.84560127826271
 11
211.8227385585601
 21
60.84560127826271
 72
     1
 10
211.8227385585601
 20
60.84560127826271
 11
211.8227385585601
 21
60.23229977826271
 72
     1
 10
211.8227385585601
 20
60.23229977826271
 11
210.09184680856
 21
60.23229977826271
 72
     1
 10
210.09184680856
 20
60.23229977826271
 11
210.09184680856
 21
61.58128027826272
 72
     1
 10
210.09184680856
 20
61.58128027826272
 11
209.59726250856
 21
61.58128027826272
 72
     1
 10
209.59726250856
 20
61.58128027826272
 11
209.59726250856
 21
60.23229977826271
 72
     1
 10
209.59726250856
 20
60.23229977826271
 11
207.7425600085601
 21
60.23229977826271
 72
     1
 10
207.7425600085601
 20
60.23229977826271
 11
207.7425600085601
 21
60.84560127826271
 72
     1
 10
207.7425600085601
 20
60.84560127826271
 11
208.97919540856
 21
60.84560127826271
 72
     1
 10
208.97919540856
 20
60.84560127826271
 11
208.97919540856
 21
61.58128027826272
 72
     1
 10
208.97919540856
 20
61.58128027826272
 11
208.60825595856
 21
61.58128027826272
 72
     1
 10
208.60825595856
 20
61.58128027826272
 11
208.60825595856
 21
62.07185077826269
 72
     1
 10
208.60825595856
 20
62.07185077826269
 11
207.8663718085601
 21
62.07185077826269
 72
     1
 10
207.8663718085601
 20
62.07185077826269
 11
207.8663718085601
 21
64.76969977826269
 72
     1
 10
207.8663718085601
 20
64.76969977826269
 11
208.60825595856
 21
64.76969977826269
 72
     1
 10
208.60825595856
 20
64.76969977826269
 11
208.60825595856
 21
65.2602737782627
 72
     1
 10
208.60825595856
 20
65.2602737782627
 11
211.08085860856
 21
65.2602737782627
 72
     1
 10
211.08085860856
 20
65.2602737782627
 11
211.08085860856
 21
64.76969977826269
 72
     1
 10
211.08085860856
 20
64.76969977826269
 11
211.69909405856
 21
64.76969977826269
 97
        0
 92
        0
 93
        4
 72
     1
 10
208.73190045856
 20
63.78870227826267
 11
209.4737744585601
 21
63.78870227826267
 72
     1
 10
209.4737744585601
 20
63.78870227826267
 11
209.4737744585601
 21
62.93028877826266
 72
     1
 10
209.4737744585601
 20
62.93028877826266
 11
208.73190045856
 21
62.93028877826266
 72
     1
 10
208.73190045856
 20
62.93028877826266
 11
208.73190045856
 21
63.78870227826267
 97
        0
 75
     0
 76
     1
 98
        0
  0
LINE
  5
664
330
D67
100
AcDbEntity
  8
labels
 62
    51
420
 16187201
100
AcDbLine
 10
207.7425600085601
 20
60.23229977826271
 30
0.0
 11
207.7425600085601
 21
60.84560127826271
 31
0.0
  0
LINE
  5
665
330
D67
100
AcDbEntity
  8
labels
 62
    51
420
 16187201
100
AcDbLine
 10
207.7425600085601
 20
60.84560127826271
 30
0.0
 11
208.97919540856
 21
60.84560127826271
 31
0.0
  0
LINE
  5
666
330
D67
100
AcDbEntity
  8
labels
 62
    51
420
 16187201
100
AcDbLine
 10
208.97919540856
 20
60.84560127826271
 30
0.0
 11
208.97919540856
 21
61.58128027826272
 31
0.0
  0
LINE
  5
667
330
D67
100
AcDbEntity
  8
labels
 62
    51
420
 16187201
100
AcDbLine
 10
208.97919540856
 20
61.58128027826272
 30
0.0
 11
208.60825595856
 21
61.58128027826272
 31
0.0
  0
LINE
  5
668
330
D67
100
AcDbEntity
  8
labels
 62
    51
420
 16187201
100
AcDbLine
 10
208.60825595856
 20
61.58128027826272
 30
0.0
 11
208.60825595856
 21
62.07185077826269
 31
0.0
  0
LINE
  5
669
330
D67
100
AcDbEntity
  8
labels
 62
    51
420
 16187201
100
AcDbLine
 10
208.60825595856
 20
62.07185077826269
 30
0.0
 11
207.8663718085601
 21
62.07185077826269
 31
0.0
  0
LINE
  5
66A
330
D67
100
AcDbEntity
  8
labels
 62
    51
420
 16187201
100
AcDbLine
 10
207.8663718085601
 20
62.07185077826269
 30
0.0
 11
207.8663718085601
 21
64.76969977826269
 31
0.0
  0
LINE
  5
66B
330
D67
100
AcDbEntity
  8
labels
 62
    51
420
 16187201
100
AcDbLine
 10
207.8663718085601
 20
64.76969977826269
 30
0.0
 11
208.60825595856
 21
64.76969977826269
 31
0.0
  0
LINE
  5
66C
330
D67
100
AcDbEntity
  8
labels
 62
    51
420
 16187201
100
AcDbLine
 10
208.60825595856
 20
64.76969977826269
 30
0.0
 11
208.60825595856
 21
65.2602737782627
 31
0.0
  0
LINE
  5
66D
330
D67
100
AcDbEntity
  8
labels
 62
    51
420
 16187201
100
AcDbLine
 10
208.60825595856
 20
65.2602737782627
 30
0.0
 11
211.08085860856
 21
65.2602737782627
 31
0.0
  0
LINE
  5
66E
330
D67
100
AcDbEntity
  8
labels
 62
    51
420
 16187201
100
AcDbLine
 10
211.08085860856
 20
65.2602737782627
 30
0.0
 11
211.08085860856
 21
64.76969977826269
 31
0.0
  0
LINE
  5
66F
330
D67
100
AcDbEntity
  8
labels
 62
    51
420
 16187201
100
AcDbLine
 10
211.08085860856
 20
64.76969977826269
 30
0.0
 11
211.69909405856
 21
64.76969977826269
 31
0.0
  0
LINE
  5
670
330
D67
100
AcDbEntity
  8
labels
 62
    51
420
 16187201
100
AcDbLine
 10
214.50741145856
 20
65.33260477826263
 30
0.0
 11
216.98001410856
 21
65.33260477826263
 31
0.0
  0
LINE
  5
671
330
D67
100
AcDbEntity
  8
labels
 62
    51
420
 16187201
100
AcDbLine
 10
216.98001410856
 20
65.33260477826263
 30
0.0
 11
216.98001410856
 21
64.84203077826263
 31
0.0
  0
LINE
  5
672
330
D67
100
AcDbEntity
  8
labels
 62
    51
420
 16187201
100
AcDbLine
 10
216.98001410856
 20
64.84203077826263
 30
0.0
 11
217.59824955856
 21
64.84203077826263
 31
0.0
  0
LINE
  5
673
330
D67
100
AcDbEntity
  8
labels
 62
    51
420
 16187201
100
AcDbLine
 10
217.59824955856
 20
64.84203077826263
 30
0.0
 11
217.59824955856
 21
62.14418177826263
 31
0.0
  0
LINE
  5
674
330
D67
100
AcDbEntity
  8
labels
 62
    51
420
 16187201
100
AcDbLine
 10
217.59824955856
 20
62.14418177826263
 30
0.0
 11
216.98001410856
 21
62.14418177826263
 31
0.0
  0
LINE
  5
675
330
D67
100
AcDbEntity
  8
labels
 62
    51
420
 16187201
100
AcDbLine
 10
216.98001410856
 20
62.14418177826263
 30
0.0
 11
216.98001410856
 21
61.65361127826265
 31
0.0
  0
LINE
  5
676
330
D67
100
AcDbEntity
  8
labels
 62
    51
420
 16187201
100
AcDbLine
 10
216.98001410856
 20
61.65361127826265
 30
0.0
 11
216.60923635856
 21
61.65361127826265
 31
0.0
  0
LINE
  5
677
330
D67
100
AcDbEntity
  8
labels
 62
    51
420
 16187201
100
AcDbLine
 10
216.60923635856
 20
61.65361127826265
 30
0.0
 11
216.60923635856
 21
60.91793227826265
 31
0.0
  0
LINE
  5
678
330
D67
100
AcDbEntity
  8
labels
 62
    51
420
 16187201
100
AcDbLine
 10
216.60923635856
 20
60.91793227826265
 30
0.0
 11
217.7218940585601
 21
60.91793227826265
 31
0.0
  0
LINE
  5
679
330
D67
100
AcDbEntity
  8
labels
 62
    51
420
 16187201
100
AcDbLine
 10
217.7218940585601
 20
60.91793227826265
 30
0.0
 11
217.7218940585601
 21
60.30463077826264
 31
0.0
  0
LINE
  5
67A
330
D67
100
AcDbEntity
  8
labels
 62
    51
420
 16187201
100
AcDbLine
 10
217.7218940585601
 20
60.30463077826264
 30
0.0
 11
215.99100230856
 21
60.30463077826264
 31
0.0
  0
LINE
  5
67B
330
D67
100
AcDbEntity
  8
labels
 62
    51
420
 16187201
100
AcDbLine
 10
215.99100230856
 20
60.30463077826264
 30
0.0
 11
215.99100230856
 21
61.65361127826265
 31
0.0
  0
LINE
  5
67C
330
D67
100
AcDbEntity
  8
labels
 62
    51
420
 16187201
100
AcDbLine
 10
215.99100230856
 20
61.65361127826265
 30
0.0
 11
215.49641800856
 21
61.65361127826265
 31
0.0
  0
LINE
  5
67D
330
D67
100
AcDbEntity
  8
labels
 62
    51
420
 16187201
100
AcDbLine
 10
215.49641800856
 20
61.65361127826265
 30
0.0
 11
215.49641800856
 21
60.30463077826264
 31
0.0
  0
LINE
  5
67E
330
D67
100
AcDbEntity
  8
labels
 62
    51
420
 16187201
100
AcDbLine
 10
215.49641800856
 20
60.30463077826264
 30
0.0
 11
213.6417155085601
 21
60.30463077826264
 31
0.0
  0
LINE
  5
67F
330
D67
100
AcDbEntity
  8
labels
 62
    51
420
 16187201
100
AcDbLine
 10
213.6417155085601
 20
60.30463077826264
 30
0.0
 11
213.6417155085601
 21
60.91793227826265
 31
0.0
  0
LINE
  5
680
330
D67
100
AcDbEntity
  8
labels
 62
    51
420
 16187201
100
AcDbLine
 10
213.6417155085601
 20
60.91793227826265
 30
0.0
 11
214.87835090856
 21
60.91793227826265
 31
0.0
  0
LINE
  5
681
330
D67
100
AcDbEntity
  8
labels
 62
    51
420
 16187201
100
AcDbLine
 10
214.87835090856
 20
60.91793227826265
 30
0.0
 11
214.87835090856
 21
61.65361127826265
 31
0.0
  0
LINE
  5
682
330
D67
100
AcDbEntity
  8
labels
 62
    51
420
 16187201
100
AcDbLine
 10
214.87835090856
 20
61.65361127826265
 30
0.0
 11
214.50741145856
 21
61.65361127826265
 31
0.0
  0
LINE
  5
683
330
D67
100
AcDbEntity
  8
labels
 62
    51
420
 16187201
100
AcDbLine
 10
214.50741145856
 20
61.65361127826265
 30
0.0
 11
214.50741145856
 21
62.14418177826263
 31
0.0
  0
LINE
  5
684
330
D67
100
AcDbEntity
  8
labels
 62
    51
420
 16187201
100
AcDbLine
 10
214.50741145856
 20
62.14418177826263
 30
0.0
 11
213.7655273085601
 21
62.14418177826263
 31
0.0
  0
LINE
  5
685
330
D67
100
AcDbEntity
  8
labels
 62
    51
420
 16187201
100
AcDbLine
 10
213.7655273085601
 20
62.14418177826263
 30
0.0
 11
213.7655273085601
 21
64.84203077826263
 31
0.0
  0
HATCH
  5
686
330
D67
100
AcDbEntity
  8
labels
 62
    51
420
 16187201
100
AcDbHatch
 10
0.0
 20
0.0
 30
0.0
210
0.0
220
0.0
230
1.0
  2
SOLID
 70
     1
 71
     0
 91
        3
 92
        0
 93
        4
 72
     1
 10
215.8673574585601
 20
63.00261977826259
 11
215.8673574585601
 21
63.8610332782626
 72
     1
 10
215.8673574585601
 20
63.8610332782626
 11
216.60923635856
 21
63.8610332782626
 72
     1
 10
216.60923635856
 20
63.8610332782626
 11
216.60923635856
 21
63.00261977826259
 72
     1
 10
216.60923635856
 20
63.00261977826259
 11
215.8673574585601
 21
63.00261977826259
 97
        0
 92
        0
 93
       24
 72
     1
 10
217.59824955856
 20
64.84203077826263
 11
217.59824955856
 21
62.14418177826263
 72
     1
 10
217.59824955856
 20
62.14418177826263
 11
216.98001410856
 21
62.14418177826263
 72
     1
 10
216.98001410856
 20
62.14418177826263
 11
216.98001410856
 21
61.65361127826265
 72
     1
 10
216.98001410856
 20
61.65361127826265
 11
216.60923635856
 21
61.65361127826265
 72
     1
 10
216.60923635856
 20
61.65361127826265
 11
216.60923635856
 21
60.91793227826265
 72
     1
 10
216.60923635856
 20
60.91793227826265
 11
217.7218940585601
 21
60.91793227826265
 72
     1
 10
217.7218940585601
 20
60.91793227826265
 11
217.7218940585601
 21
60.30463077826264
 72
     1
 10
217.7218940585601
 20
60.30463077826264
 11
215.99100230856
 21
60.30463077826264
 72
     1
 10
215.99100230856
 20
60.30463077826264
 11
215.99100230856
 21
61.65361127826265
 72
     1
 10
215.99100230856
 20
61.65361127826265
 11
215.49641800856
 21
61.65361127826265
 72
     1
 10
215.49641800856
 20
61.65361127826265
 11
215.49641800856
 21
60.30463077826264
 72
     1
 10
215.49641800856
 20
60.30463077826264
 11
213.6417155085601
 21
60.30463077826264
 72
     1
 10
213.6417155085601
 20
60.30463077826264
 11
213.6417155085601
 21
60.91793227826265
 72
     1
 10
213.6417155085601
 20
60.91793227826265
 11
214.87835090856
 21
60.91793227826265
 72
     1
 10
214.87835090856
 20
60.91793227826265
 11
214.87835090856
 21
61.65361127826265
 72
     1
 10
214.87835090856
 20
61.65361127826265
 11
214.50741145856
 21
61.65361127826265
 72
     1
 10
214.50741145856
 20
61.65361127826265
 11
214.50741145856
 21
62.14418177826263
 72
     1
 10
214.50741145856
 20
62.14418177826263
 11
213.7655273085601
 21
62.14418177826263
 72
     1
 10
213.7655273085601
 20
62.14418177826263
 11
213.7655273085601
 21
64.84203077826263
 72
     1
 10
213.7655273085601
 20
64.84203077826263
 11
214.50741145856
 21
64.84203077826263
 72
     1
 10
214.50741145856
 20
64.84203077826263
 11
214.50741145856
 21
65.33260477826263
 72
     1
 10
214.50741145856
 20
65.33260477826263
 11
216.98001410856
 21
65.33260477826263
 72
     1
 10
216.98001410856
 20
65.33260477826263
 11
216.98001410856
 21
64.84203077826263
 72
     1
 10
216.98001410856
 20
64.84203077826263
 11
217.59824955856
 21
64.84203077826263
 97
        0
 92
        0
 93
        4
 72
     1
 10
214.63105595856
 20
63.8610332782626
 11
215.3729299585601
 21
63.8610332782626
 72
     1
 10
215.3729299585601
 20
63.8610332782626
 11
215.3729299585601
 21
63.00261977826259
 72
     1
 10
215.3729299585601
 20
63.00261977826259
 11
214.63105595856
 21
63.00261977826259
 72
     1
 10
214.63105595856
 20
63.00261977826259
 11
214.63105595856
 21
63.8610332782626
 97
        0
 75
     0
 76
     1
 98
        0
  0
LINE
  5
687
330
D67
100
AcDbEntity
  8
labels
 62
    51
420
 16187201
100
AcDbLine
 10
213.6417155085601
 20
60.30463077826264
 30
0.0
 11
213.6417155085601
 21
60.91793227826265
 31
0.0
  0
LINE
  5
688
330
D67
100
AcDbEntity
  8
labels
 62
    51
420
 16187201
100
AcDbLine
 10
213.6417155085601
 20
60.91793227826265
 30
0.0
 11
214.87835090856
 21
60.91793227826265
 31
0.0
  0
LINE
  5
689
330
D67
100
AcDbEntity
  8
labels
 62
    51
420
 16187201
100
AcDbLine
 10
214.87835090856
 20
60.91793227826265
 30
0.0
 11
214.87835090856
 21
61.65361127826265
 31
0.0
  0
LINE
  5
68A
330
D67
100
AcDbEntity
  8
labels
 62
    51
420
 16187201
100
AcDbLine
 10
214.87835090856
 20
61.65361127826265
 30
0.0
 11
214.50741145856
 21
61.65361127826265
 31
0.0
  0
LINE
  5
68B
330
D67
100
AcDbEntity
  8
labels
 62
    51
420
 16187201
100
AcDbLine
 10
214.50741145856
 20
61.65361127826265
 30
0.0
 11
214.50741145856
 21
62.14418177826263
 31
0.0
  0
LINE
  5
68C
330
D67
100
AcDbEntity
  8
labels
 62
    51
420
 16187201
100
AcDbLine
 10
214.50741145856
 20
62.14418177826263
 30
0.0
 11
213.7655273085601
 21
62.14418177826263
 31
0.0
  0
LINE
  5
68D
330
D67
100
AcDbEntity
  8
labels
 62
    51
420
 16187201
100
AcDbLine
 10
213.7655273085601
 20
62.14418177826263
 30
0.0
 11
213.7655273085601
 21
64.84203077826263
 31
0.0
  0
LINE
  5
68E
330
D67
100
AcDbEntity
  8
labels
 62
    51
420
 16187201
100
AcDbLine
 10
213.7655273085601
 20
64.84203077826263
 30
0.0
 11
214.50741145856
 21
64.84203077826263
 31
0.0
  0
LINE
  5
68F
330
D67
100
AcDbEntity
  8
labels
 62
    51
420
 16187201
100
AcDbLine
 10
214.50741145856
 20
64.84203077826263
 30
0.0
 11
214.50741145856
 21
65.33260477826263
 31
0.0
  0
LINE
  5
690
330
D67
100
AcDbEntity
  8
labels
 62
    51
420
 16187201
100
AcDbLine
 10
214.50741145856
 20
65.33260477826263
 30
0.0
 11
216.98001410856
 21
65.33260477826263
 31
0.0
  0
LINE
  5
691
330
D67
100
AcDbEntity
  8
labels
 62
    51
420
 16187201
100
AcDbLine
 10
216.98001410856
 20
65.33260477826263
 30
0.0
 11
216.98001410856
 21
64.84203077826263
 31
0.0
  0
LINE
  5
692
330
D67
100
AcDbEntity
  8
labels
 62
    51
420
 16187201
100
AcDbLine
 10
216.98001410856
 20
64.84203077826263
 30
0.0
 11
217.59824955856
 21
64.84203077826263
 31
0.0
  0
LINE
  5
693
330
D67
100
AcDbEntity
  8
labels
 62
    51
420
 16187201
100
AcDbLine
 10
217.59824955856
 20
64.84203077826263
 30
0.0
 11
217.59824955856
 21
62.14418177826263
 31
0.0
  0
LINE
  5
694
330
D67
100
AcDbEntity
  8
labels
 62
    51
420
 16187201
100
AcDbLine
 10
217.59824955856
 20
62.14418177826263
 30
0.0
 11
216.98001410856
 21
62.14418177826263
 31
0.0
  0
LINE
  5
695
330
D67
100
AcDbEntity
  8
labels
 62
    51
420
 16187201
100
AcDbLine
 10
216.98001410856
 20
62.14418177826263
 30
0.0
 11
216.98001410856
 21
61.65361127826265
 31
0.0
  0
LINE
  5
696
330
D67
100
AcDbEntity
  8
labels
 62
    51
420
 16187201
100
AcDbLine
 10
216.98001410856
 20
61.65361127826265
 30
0.0
 11
216.60923635856
 21
61.65361127826265
 31
0.0
  0
LINE
  5
697
330
D67
100
AcDbEntity
  8
labels
 62
    51
420
 16187201
100
AcDbLine
 10
216.60923635856
 20
61.65361127826265
 30
0.0
 11
216.60923635856
 21
60.91793227826265
 31
0.0
  0
LINE
  5
698
330
D67
100
AcDbEntity
  8
labels
 62
    51
420
 16187201
100
AcDbLine
 10
216.60923635856
 20
60.91793227826265
 30
0.0
 11
217.7218940585601
 21
60.91793227826265
 31
0.0
  0
LINE
  5
699
330
D67
100
AcDbEntity
  8
labels
 62
    51
420
 16187201
100
AcDbLine
 10
217.7218940585601
 20
60.91793227826265
 30
0.0
 11
217.7218940585601
 21
60.30463077826264
 31
0.0
  0
LINE
  5
69A
330
D67
100
AcDbEntity
  8
labels
 62
    51
420
 16187201
100
AcDbLine
 10
217.7218940585601
 20
60.30463077826264
 30
0.0
 11
215.99100230856
 21
60.30463077826264
 31
0.0
  0
LINE
  5
69B
330
D67
100
AcDbEntity
  8
labels
 62
    51
420
 16187201
100
AcDbLine
 10
215.99100230856
 20
60.30463077826264
 30
0.0
 11
215.99100230856
 21
61.65361127826265
 31
0.0
  0
LINE
  5
69C
330
D67
100
AcDbEntity
  8
labels
 62
    51
420
 16187201
100
AcDbLine
 10
215.99100230856
 20
61.65361127826265
 30
0.0
 11
215.49641800856
 21
61.65361127826265
 31
0.0
  0
LINE
  5
69D
330
D67
100
AcDbEntity
  8
labels
 62
    51
420
 16187201
100
AcDbLine
 10
215.49641800856
 20
61.65361127826265
 30
0.0
 11
215.49641800856
 21
60.30463077826264
 31
0.0
  0
LINE
  5
69E
330
D67
100
AcDbEntity
  8
labels
 62
    51
420
 16187201
100
AcDbLine
 10
215.49641800856
 20
60.30463077826264
 30
0.0
 11
213.6417155085601
 21
60.30463077826264
 31
0.0
  0
LINE
  5
69F
330
D67
100
AcDbEntity
  8
labels
 62
    51
420
 16187201
100
AcDbLine
 10
214.63105595856
 20
63.8610332782626
 30
0.0
 11
215.3729299585601
 21
63.8610332782626
 31
0.0
  0
LINE
  5
6A0
330
D67
100
AcDbEntity
  8
labels
 62
    51
420
 16187201
100
AcDbLine
 10
215.3729299585601
 20
63.8610332782626
 30
0.0
 11
215.3729299585601
 21
63.00261977826259
 31
0.0
  0
LINE
  5
6A1
330
D67
100
AcDbEntity
  8
labels
 62
    51
420
 16187201
100
AcDbLine
 10
215.3729299585601
 20
63.00261977826259
 30
0.0
 11
214.63105595856
 21
63.00261977826259
 31
0.0
  0
LINE
  5
6A2
330
D67
100
AcDbEntity
  8
labels
 62
    51
420
 16187201
100
AcDbLine
 10
214.63105595856
 20
63.00261977826259
 30
0.0
 11
214.63105595856
 21
63.8610332782626
 31
0.0
  0
LINE
  5
6A3
330
D67
100
AcDbEntity
  8
labels
 62
    51
420
 16187201
100
AcDbLine
 10
215.8673574585601
 20
63.8610332782626
 30
0.0
 11
216.60923635856
 21
63.8610332782626
 31
0.0
  0
LINE
  5
6A4
330
D67
100
AcDbEntity
  8
labels
 62
    51
420
 16187201
100
AcDbLine
 10
216.60923635856
 20
63.8610332782626
 30
0.0
 11
216.60923635856
 21
63.00261977826259
 31
0.0
  0
LINE
  5
6A5
330
D67
100
AcDbEntity
  8
labels
 62
    51
420
 16187201
100
AcDbLine
 10
216.60923635856
 20
63.00261977826259
 30
0.0
 11
215.8673574585601
 21
63.00261977826259
 31
0.0
  0
LINE
  5
6A6
330
D67
100
AcDbEntity
  8
labels
 62
    51
420
 16187201
100
AcDbLine
 10
215.8673574585601
 20
63.00261977826259
 30
0.0
 11
215.8673574585601
 21
63.8610332782626
 31
0.0
  0
LINE
  5
6A7
330
D67
100
AcDbEntity
  8
labels
 62
    51
420
 16187201
100
AcDbLine
 10
213.7655273085601
 20
64.84203077826263
 30
0.0
 11
214.50741145856
 21
64.84203077826263
 31
0.0
  0
LINE
  5
6A8
330
D67
100
AcDbEntity
  8
labels
 62
    51
420
 16187201
100
AcDbLine
 10
214.50741145856
 20
64.84203077826263
 30
0.0
 11
214.50741145856
 21
65.33260477826263
 31
0.0
  0
LINE
  5
6A9
330
D67
100
AcDbEntity
  8
labels
 62
    51
420
 16187201
100
AcDbLine
 10
220.40655995856
 20
65.2602737782627
 30
0.0
 11
222.87916260856
 21
65.2602737782627
 31
0.0
  0
LINE
  5
6AA
330
D67
100
AcDbEntity
  8
labels
 62
    51
420
 16187201
100
AcDbLine
 10
222.87916260856
 20
65.2602737782627
 30
0.0
 11
222.87916260856
 21
64.76969977826269
 31
0.0
  0
LINE
  5
6AB
330
D67
100
AcDbEntity
  8
labels
 62
    51
420
 16187201
100
AcDbLine
 10
222.87916260856
 20
64.76969977826269
 30
0.0
 11
223.49739805856
 21
64.76969977826269
 31
0.0
  0
LINE
  5
6AC
330
D67
100
AcDbEntity
  8
labels
 62
    51
420
 16187201
100
AcDbLine
 10
223.49739805856
 20
64.76969977826269
 30
0.0
 11
223.49739805856
 21
62.07185077826269
 31
0.0
  0
LINE
  5
6AD
330
D67
100
AcDbEntity
  8
labels
 62
    51
420
 16187201
100
AcDbLine
 10
223.49739805856
 20
62.07185077826269
 30
0.0
 11
222.87916260856
 21
62.07185077826269
 31
0.0
  0
LINE
  5
6AE
330
D67
100
AcDbEntity
  8
labels
 62
    51
420
 16187201
100
AcDbLine
 10
222.87916260856
 20
62.07185077826269
 30
0.0
 11
222.87916260856
 21
61.58128027826272
 31
0.0
  0
LINE
  5
6AF
330
D67
100
AcDbEntity
  8
labels
 62
    51
420
 16187201
100
AcDbLine
 10
222.87916260856
 20
61.58128027826272
 30
0.0
 11
222.50838485856
 21
61.58128027826272
 31
0.0
  0
LINE
  5
6B0
330
D67
100
AcDbEntity
  8
labels
 62
    51
420
 16187201
100
AcDbLine
 10
222.50838485856
 20
61.58128027826272
 30
0.0
 11
222.50838485856
 21
60.84560127826271
 31
0.0
  0
LINE
  5
6B1
330
D67
100
AcDbEntity
  8
labels
 62
    51
420
 16187201
100
AcDbLine
 10
222.50838485856
 20
60.84560127826271
 30
0.0
 11
223.6210425585601
 21
60.84560127826271
 31
0.0
  0
LINE
  5
6B2
330
D67
100
AcDbEntity
  8
labels
 62
    51
420
 16187201
100
AcDbLine
 10
223.6210425585601
 20
60.84560127826271
 30
0.0
 11
223.6210425585601
 21
60.23229977826271
 31
0.0
  0
LINE
  5
6B3
330
D67
100
AcDbEntity
  8
labels
 62
    51
420
 16187201
100
AcDbLine
 10
223.6210425585601
 20
60.23229977826271
 30
0.0
 11
221.89015080856
 21
60.23229977826271
 31
0.0
  0
LINE
  5
6B4
330
D67
100
AcDbEntity
  8
labels
 62
    51
420
 16187201
100
AcDbLine
 10
221.89015080856
 20
60.23229977826271
 30
0.0
 11
221.89015080856
 21
61.58128027826272
 31
0.0
  0
LINE
  5
6B5
330
D67
100
AcDbEntity
  8
labels
 62
    51
420
 16187201
100
AcDbLine
 10
221.89015080856
 20
61.58128027826272
 30
0.0
 11
221.39556650856
 21
61.58128027826272
 31
0.0
  0
LINE
  5
6B6
330
D67
100
AcDbEntity
  8
labels
 62
    51
420
 16187201
100
AcDbLine
 10
221.39556650856
 20
61.58128027826272
 30
0.0
 11
221.39556650856
 21
60.23229977826271
 31
0.0
  0
LINE
  5
6B7
330
D67
100
AcDbEntity
  8
labels
 62
    51
420
 16187201
100
AcDbLine
 10
221.39556650856
 20
60.23229977826271
 30
0.0
 11
219.5408640085601
 21
60.23229977826271
 31
0.0
  0
LINE
  5
6B8
330
D67
100
AcDbEntity
  8
labels
 62
    51
420
 16187201
100
AcDbLine
 10
220.53020445856
 20
63.78870227826267
 30
0.0
 11
221.2720784585601
 21
63.78870227826267
 31
0.0
  0
LINE
  5
6B9
330
D67
100
AcDbEntity
  8
labels
 62
    51
420
 16187201
100
AcDbLine
 10
221.2720784585601
 20
63.78870227826267
 30
0.0
 11
221.2720784585601
 21
62.93028877826266
 31
0.0
  0
LINE
  5
6BA
330
D67
100
AcDbEntity
  8
labels
 62
    51
420
 16187201
100
AcDbLine
 10
221.2720784585601
 20
62.93028877826266
 30
0.0
 11
220.53020445856
 21
62.93028877826266
 31
0.0
  0
LINE
  5
6BB
330
D67
100
AcDbEntity
  8
labels
 62
    51
420
 16187201
100
AcDbLine
 10
220.53020445856
 20
62.93028877826266
 30
0.0
 11
220.53020445856
 21
63.78870227826267
 31
0.0
  0
LINE
  5
6BC
330
D67
100
AcDbEntity
  8
labels
 62
    51
420
 16187201
100
AcDbLine
 10
221.7665059585601
 20
63.78870227826267
 30
0.0
 11
222.50838485856
 21
63.78870227826267
 31
0.0
  0
LINE
  5
6BD
330
D67
100
AcDbEntity
  8
labels
 62
    51
420
 16187201
100
AcDbLine
 10
222.50838485856
 20
63.78870227826267
 30
0.0
 11
222.50838485856
 21
62.93028877826266
 31
0.0
  0
LINE
  5
6BE
330
D67
100
AcDbEntity
  8
labels
 62
    51
420
 16187201
100
AcDbLine
 10
222.50838485856
 20
62.93028877826266
 30
0.0
 11
221.7665059585601
 21
62.93028877826266
 31
0.0
  0
LINE
  5
6BF
330
D67
100
AcDbEntity
  8
labels
 62
    51
420
 16187201
100
AcDbLine
 10
221.7665059585601
 20
62.93028877826266
 30
0.0
 11
221.7665059585601
 21
63.78870227826267
 31
0.0
  0
LINE
  5
6C0
330
D67
100
AcDbEntity
  8
labels
 62
    51
420
 16187201
100
AcDbLine
 10
219.6646758085601
 20
64.76969977826269
 30
0.0
 11
220.40655995856
 21
64.76969977826269
 31
0.0
  0
LINE
  5
6C1
330
D67
100
AcDbEntity
  8
labels
 62
    51
420
 16187201
100
AcDbLine
 10
220.40655995856
 20
64.76969977826269
 30
0.0
 11
220.40655995856
 21
65.2602737782627
 31
0.0
  0
LINE
  5
6C2
330
D67
100
AcDbEntity
  8
labels
 62
    51
420
 16187201
100
AcDbLine
 10
220.40655995856
 20
65.2602737782627
 30
0.0
 11
222.87916260856
 21
65.2602737782627
 31
0.0
  0
LINE
  5
6C3
330
D67
100
AcDbEntity
  8
labels
 62
    51
420
 16187201
100
AcDbLine
 10
222.87916260856
 20
65.2602737782627
 30
0.0
 11
222.87916260856
 21
64.76969977826269
 31
0.0
  0
LINE
  5
6C4
330
D67
100
AcDbEntity
  8
labels
 62
    51
420
 16187201
100
AcDbLine
 10
222.87916260856
 20
64.76969977826269
 30
0.0
 11
223.49739805856
 21
64.76969977826269
 31
0.0
  0
LINE
  5
6C5
330
D67
100
AcDbEntity
  8
labels
 62
    51
420
 16187201
100
AcDbLine
 10
223.49739805856
 20
64.76969977826269
 30
0.0
 11
223.49739805856
 21
62.07185077826269
 31
0.0
  0
LINE
  5
6C6
330
D67
100
AcDbEntity
  8
labels
 62
    51
420
 16187201
100
AcDbLine
 10
223.49739805856
 20
62.07185077826269
 30
0.0
 11
222.87916260856
 21
62.07185077826269
 31
0.0
  0
LINE
  5
6C7
330
D67
100
AcDbEntity
  8
labels
 62
    51
420
 16187201
100
AcDbLine
 10
222.87916260856
 20
62.07185077826269
 30
0.0
 11
222.87916260856
 21
61.58128027826272
 31
0.0
  0
LINE
  5
6C8
330
D67
100
AcDbEntity
  8
labels
 62
    51
420
 16187201
100
AcDbLine
 10
222.87916260856
 20
61.58128027826272
 30
0.0
 11
222.50838485856
 21
61.58128027826272
 31
0.0
  0
LINE
  5
6C9
330
D67
100
AcDbEntity
  8
labels
 62
    51
420
 16187201
100
AcDbLine
 10
222.50838485856
 20
61.58128027826272
 30
0.0
 11
222.50838485856
 21
60.84560127826271
 31
0.0
  0
LINE
  5
6CA
330
D67
100
AcDbEntity
  8
labels
 62
    51
420
 16187201
100
AcDbLine
 10
222.50838485856
 20
60.84560127826271
 30
0.0
 11
223.6210425585601
 21
60.84560127826271
 31
0.0
  0
LINE
  5
6CB
330
D67
100
AcDbEntity
  8
labels
 62
    51
420
 16187201
100
AcDbLine
 10
223.6210425585601
 20
60.84560127826271
 30
0.0
 11
223.6210425585601
 21
60.23229977826271
 31
0.0
  0
LINE
  5
6CC
330
D67
100
AcDbEntity
  8
labels
 62
    51
420
 16187201
100
AcDbLine
 10
223.6210425585601
 20
60.23229977826271
 30
0.0
 11
221.89015080856
 21
60.23229977826271
 31
0.0
  0
LINE
  5
6CD
330
D67
100
AcDbEntity
  8
labels
 62
    51
420
 16187201
100
AcDbLine
 10
221.89015080856
 20
60.23229977826271
 30
0.0
 11
221.89015080856
 21
61.58128027826272
 31
0.0
  0
LINE
  5
6CE
330
D67
100
AcDbEntity
  8
labels
 62
    51
420
 16187201
100
AcDbLine
 10
221.89015080856
 20
61.58128027826272
 30
0.0
 11
221.39556650856
 21
61.58128027826272
 31
0.0
  0
LINE
  5
6CF
330
D67
100
AcDbEntity
  8
labels
 62
    51
420
 16187201
100
AcDbLine
 10
221.39556650856
 20
61.58128027826272
 30
0.0
 11
221.39556650856
 21
60.23229977826271
 31
0.0
  0
LINE
  5
6D0
330
D67
100
AcDbEntity
  8
labels
 62
    51
420
 16187201
100
AcDbLine
 10
221.39556650856
 20
60.23229977826271
 30
0.0
 11
219.5408640085601
 21
60.23229977826271
 31
0.0
  0
LINE
  5
6D1
330
D67
100
AcDbEntity
  8
labels
 62
    51
420
 16187201
100
AcDbLine
 10
219.5408640085601
 20
60.23229977826271
 30
0.0
 11
219.5408640085601
 21
60.84560127826271
 31
0.0
  0
LINE
  5
6D2
330
D67
100
AcDbEntity
  8
labels
 62
    51
420
 16187201
100
AcDbLine
 10
219.5408640085601
 20
60.84560127826271
 30
0.0
 11
220.77749940856
 21
60.84560127826271
 31
0.0
  0
LINE
  5
6D3
330
D67
100
AcDbEntity
  8
labels
 62
    51
420
 16187201
100
AcDbLine
 10
220.77749940856
 20
60.84560127826271
 30
0.0
 11
220.77749940856
 21
61.58128027826272
 31
0.0
  0
LINE
  5
6D4
330
D67
100
AcDbEntity
  8
labels
 62
    51
420
 16187201
100
AcDbLine
 10
220.77749940856
 20
61.58128027826272
 30
0.0
 11
220.40655995856
 21
61.58128027826272
 31
0.0
  0
LINE
  5
6D5
330
D67
100
AcDbEntity
  8
labels
 62
    51
420
 16187201
100
AcDbLine
 10
220.40655995856
 20
61.58128027826272
 30
0.0
 11
220.40655995856
 21
62.07185077826269
 31
0.0
  0
LINE
  5
6D6
330
D67
100
AcDbEntity
  8
labels
 62
    51
420
 16187201
100
AcDbLine
 10
220.40655995856
 20
62.07185077826269
 30
0.0
 11
219.6646758085601
 21
62.07185077826269
 31
0.0
  0
LINE
  5
6D7
330
D67
100
AcDbEntity
  8
labels
 62
    51
420
 16187201
100
AcDbLine
 10
219.6646758085601
 20
62.07185077826269
 30
0.0
 11
219.6646758085601
 21
64.76969977826269
 31
0.0
  0
HATCH
  5
6D8
330
D67
100
AcDbEntity
  8
labels
 62
    51
420
 16187201
100
AcDbHatch
 10
0.0
 20
0.0
 30
0.0
210
0.0
220
0.0
230
1.0
  2
SOLID
 70
     1
 71
     0
 91
        3
 92
        0
 93
        4
 72
     1
 10
221.7665059585601
 20
62.93028877826266
 11
221.7665059585601
 21
63.78870227826267
 72
     1
 10
221.7665059585601
 20
63.78870227826267
 11
222.50838485856
 21
63.78870227826267
 72
     1
 10
222.50838485856
 20
63.78870227826267
 11
222.50838485856
 21
62.93028877826266
 72
     1
 10
222.50838485856
 20
62.93028877826266
 11
221.7665059585601
 21
62.93028877826266
 97
        0
 92
        0
 93
       24
 72
     1
 10
223.49739805856
 20
64.76969977826269
 11
223.49739805856
 21
62.07185077826269
 72
     1
 10
223.49739805856
 20
62.07185077826269
 11
222.87916260856
 21
62.07185077826269
 72
     1
 10
222.87916260856
 20
62.07185077826269
 11
222.87916260856
 21
61.58128027826272
 72
     1
 10
222.87916260856
 20
61.58128027826272
 11
222.50838485856
 21
61.58128027826272
 72
     1
 10
222.50838485856
 20
61.58128027826272
 11
222.50838485856
 21
60.84560127826271
 72
     1
 10
222.50838485856
 20
60.84560127826271
 11
223.6210425585601
 21
60.84560127826271
 72
     1
 10
223.6210425585601
 20
60.84560127826271
 11
223.6210425585601
 21
60.23229977826271
 72
     1
 10
223.6210425585601
 20
60.23229977826271
 11
221.89015080856
 21
60.23229977826271
 72
     1
 10
221.89015080856
 20
60.23229977826271
 11
221.89015080856
 21
61.58128027826272
 72
     1
 10
221.89015080856
 20
61.58128027826272
 11
221.39556650856
 21
61.58128027826272
 72
     1
 10
221.39556650856
 20
61.58128027826272
 11
221.39556650856
 21
60.23229977826271
 72
     1
 10
221.39556650856
 20
60.23229977826271
 11
219.5408640085601
 21
60.23229977826271
 72
     1
 10
219.5408640085601
 20
60.23229977826271
 11
219.5408640085601
 21
60.84560127826271
 72
     1
 10
219.5408640085601
 20
60.84560127826271
 11
220.77749940856
 21
60.84560127826271
 72
     1
 10
220.77749940856
 20
60.84560127826271
 11
220.77749940856
 21
61.58128027826272
 72
     1
 10
220.77749940856
 20
61.58128027826272
 11
220.40655995856
 21
61.58128027826272
 72
     1
 10
220.40655995856
 20
61.58128027826272
 11
220.40655995856
 21
62.07185077826269
 72
     1
 10
220.40655995856
 20
62.07185077826269
 11
219.6646758085601
 21
62.07185077826269
 72
     1
 10
219.6646758085601
 20
62.07185077826269
 11
219.6646758085601
 21
64.76969977826269
 72
     1
 10
219.6646758085601
 20
64.76969977826269
 11
220.40655995856
 21
64.76969977826269
 72
     1
 10
220.40655995856
 20
64.76969977826269
 11
220.40655995856
 21
65.2602737782627
 72
     1
 10
220.40655995856
 20
65.2602737782627
 11
222.87916260856
 21
65.2602737782627
 72
     1
 10
222.87916260856
 20
65.2602737782627
 11
222.87916260856
 21
64.76969977826269
 72
     1
 10
222.87916260856
 20
64.76969977826269
 11
223.49739805856
 21
64.76969977826269
 97
        0
 92
        0
 93
        4
 72
     1
 10
220.53020445856
 20
63.78870227826267
 11
221.2720784585601
 21
63.78870227826267
 72
     1
 10
221.2720784585601
 20
63.78870227826267
 11
221.2720784585601
 21
62.93028877826266
 72
     1
 10
221.2720784585601
 20
62.93028877826266
 11
220.53020445856
 21
62.93028877826266
 72
     1
 10
220.53020445856
 20
62.93028877826266
 11
220.53020445856
 21
63.78870227826267
 97
        0
 75
     0
 76
     1
 98
        0
  0
LINE
  5
6D9
330
D67
100
AcDbEntity
  8
labels
 62
    51
420
 16187201
100
AcDbLine
 10
219.5408640085601
 20
60.23229977826271
 30
0.0
 11
219.5408640085601
 21
60.84560127826271
 31
0.0
  0
LINE
  5
6DA
330
D67
100
AcDbEntity
  8
labels
 62
    51
420
 16187201
100
AcDbLine
 10
219.5408640085601
 20
60.84560127826271
 30
0.0
 11
220.77749940856
 21
60.84560127826271
 31
0.0
  0
LINE
  5
6DB
330
D67
100
AcDbEntity
  8
labels
 62
    51
420
 16187201
100
AcDbLine
 10
220.77749940856
 20
60.84560127826271
 30
0.0
 11
220.77749940856
 21
61.58128027826272
 31
0.0
  0
LINE
  5
6DC
330
D67
100
AcDbEntity
  8
labels
 62
    51
420
 16187201
100
AcDbLine
 10
220.77749940856
 20
61.58128027826272
 30
0.0
 11
220.40655995856
 21
61.58128027826272
 31
0.0
  0
LINE
  5
6DD
330
D67
100
AcDbEntity
  8
labels
 62
    51
420
 16187201
100
AcDbLine
 10
220.40655995856
 20
61.58128027826272
 30
0.0
 11
220.40655995856
 21
62.07185077826269
 31
0.0
  0
LINE
  5
6DE
330
D67
100
AcDbEntity
  8
labels
 62
    51
420
 16187201
100
AcDbLine
 10
220.40655995856
 20
62.07185077826269
 30
0.0
 11
219.6646758085601
 21
62.07185077826269
 31
0.0
  0
LINE
  5
6DF
330
D67
100
AcDbEntity
  8
labels
 62
    51
420
 16187201
100
AcDbLine
 10
219.6646758085601
 20
62.07185077826269
 30
0.0
 11
219.6646758085601
 21
64.76969977826269
 31
0.0
  0
LINE
  5
6E0
330
D67
100
AcDbEntity
  8
labels
 62
    51
420
 16187201
100
AcDbLine
 10
219.6646758085601
 20
64.76969977826269
 30
0.0
 11
220.40655995856
 21
64.76969977826269
 31
0.0
  0
LINE
  5
6E1
330
D67
100
AcDbEntity
  8
labels
 62
    51
420
 16187201
100
AcDbLine
 10
220.40655995856
 20
64.76969977826269
 30
0.0
 11
220.40655995856
 21
65.2602737782627
 31
0.0
  0
LINE
  5
6E2
330
D67
100
AcDbEntity
  8
labels
 62
    51
420
 16187201
100
AcDbLine
 10
207.3026100085602
 20
52.72838377826267
 30
0.0
 11
207.3026100085602
 21
53.34168527826267
 31
0.0
  0
LINE
  5
6E3
330
D67
100
AcDbEntity
  8
labels
 62
    51
420
 16187201
100
AcDbLine
 10
207.3026100085602
 20
53.34168527826267
 30
0.0
 11
208.5392454085601
 21
53.34168527826267
 31
0.0
  0
LINE
  5
6E4
330
D67
100
AcDbEntity
  8
labels
 62
    51
420
 16187201
100
AcDbLine
 10
208.5392454085601
 20
53.34168527826267
 30
0.0
 11
208.5392454085601
 21
54.07736427826268
 31
0.0
  0
LINE
  5
6E5
330
D67
100
AcDbEntity
  8
labels
 62
    51
420
 16187201
100
AcDbLine
 10
208.5392454085601
 20
54.07736427826268
 30
0.0
 11
208.1683059585601
 21
54.07736427826268
 31
0.0
  0
LINE
  5
6E6
330
D67
100
AcDbEntity
  8
labels
 62
    51
420
 16187201
100
AcDbLine
 10
208.1683059585601
 20
54.07736427826268
 30
0.0
 11
208.1683059585601
 21
54.56793477826265
 31
0.0
  0
LINE
  5
6E7
330
D67
100
AcDbEntity
  8
labels
 62
    51
420
 16187201
100
AcDbLine
 10
208.1683059585601
 20
54.56793477826265
 30
0.0
 11
207.4264218085602
 21
54.56793477826265
 31
0.0
  0
LINE
  5
6E8
330
D67
100
AcDbEntity
  8
labels
 62
    51
420
 16187201
100
AcDbLine
 10
207.4264218085602
 20
54.56793477826265
 30
0.0
 11
207.4264218085602
 21
57.26578377826265
 31
0.0
  0
LINE
  5
6E9
330
D67
100
AcDbEntity
  8
labels
 62
    51
420
 16187201
100
AcDbLine
 10
207.4264218085602
 20
57.26578377826265
 30
0.0
 11
208.1683059585601
 21
57.26578377826265
 31
0.0
  0
LINE
  5
6EA
330
D67
100
AcDbEntity
  8
labels
 62
    51
420
 16187201
100
AcDbLine
 10
208.1683059585601
 20
57.26578377826265
 30
0.0
 11
208.1683059585601
 21
57.75635777826266
 31
0.0
  0
LINE
  5
6EB
330
D67
100
AcDbEntity
  8
labels
 62
    51
420
 16187201
100
AcDbLine
 10
208.1683059585601
 20
57.75635777826266
 30
0.0
 11
210.6409086085601
 21
57.75635777826266
 31
0.0
  0
LINE
  5
6EC
330
D67
100
AcDbEntity
  8
labels
 62
    51
420
 16187201
100
AcDbLine
 10
210.6409086085601
 20
57.75635777826266
 30
0.0
 11
210.6409086085601
 21
57.26578377826265
 31
0.0
  0
LINE
  5
6ED
330
D67
100
AcDbEntity
  8
labels
 62
    51
420
 16187201
100
AcDbLine
 10
210.6409086085601
 20
57.26578377826265
 30
0.0
 11
211.2591440585601
 21
57.26578377826265
 31
0.0
  0
LINE
  5
6EE
330
D67
100
AcDbEntity
  8
labels
 62
    51
420
 16187201
100
AcDbLine
 10
211.2591440585601
 20
57.26578377826265
 30
0.0
 11
211.2591440585601
 21
54.56793477826265
 31
0.0
  0
LINE
  5
6EF
330
D67
100
AcDbEntity
  8
labels
 62
    51
420
 16187201
100
AcDbLine
 10
211.2591440585601
 20
54.56793477826265
 30
0.0
 11
210.6409086085601
 21
54.56793477826265
 31
0.0
  0
LINE
  5
6F0
330
D67
100
AcDbEntity
  8
labels
 62
    51
420
 16187201
100
AcDbLine
 10
210.6409086085601
 20
54.56793477826265
 30
0.0
 11
210.6409086085601
 21
54.07736427826268
 31
0.0
  0
LINE
  5
6F1
330
D67
100
AcDbEntity
  8
labels
 62
    51
420
 16187201
100
AcDbLine
 10
210.6409086085601
 20
54.07736427826268
 30
0.0
 11
210.2701308585601
 21
54.07736427826268
 31
0.0
  0
LINE
  5
6F2
330
D67
100
AcDbEntity
  8
labels
 62
    51
420
 16187201
100
AcDbLine
 10
210.2701308585601
 20
54.07736427826268
 30
0.0
 11
210.2701308585601
 21
53.34168527826267
 31
0.0
  0
LINE
  5
6F3
330
D67
100
AcDbEntity
  8
labels
 62
    51
420
 16187201
100
AcDbLine
 10
210.2701308585601
 20
53.34168527826267
 30
0.0
 11
211.3827885585602
 21
53.34168527826267
 31
0.0
  0
LINE
  5
6F4
330
D67
100
AcDbEntity
  8
labels
 62
    51
420
 16187201
100
AcDbLine
 10
211.3827885585602
 20
53.34168527826267
 30
0.0
 11
211.3827885585602
 21
52.72838377826267
 31
0.0
  0
LINE
  5
6F5
330
D67
100
AcDbEntity
  8
labels
 62
    51
420
 16187201
100
AcDbLine
 10
211.3827885585602
 20
52.72838377826267
 30
0.0
 11
209.6518968085601
 21
52.72838377826267
 31
0.0
  0
LINE
  5
6F6
330
D67
100
AcDbEntity
  8
labels
 62
    51
420
 16187201
100
AcDbLine
 10
209.6518968085601
 20
52.72838377826267
 30
0.0
 11
209.6518968085601
 21
54.07736427826268
 31
0.0
  0
LINE
  5
6F7
330
D67
100
AcDbEntity
  8
labels
 62
    51
420
 16187201
100
AcDbLine
 10
209.6518968085601
 20
54.07736427826268
 30
0.0
 11
209.1573125085601
 21
54.07736427826268
 31
0.0
  0
LINE
  5
6F8
330
D67
100
AcDbEntity
  8
labels
 62
    51
420
 16187201
100
AcDbLine
 10
209.1573125085601
 20
54.07736427826268
 30
0.0
 11
209.1573125085601
 21
52.72838377826267
 31
0.0
  0
LINE
  5
6F9
330
D67
100
AcDbEntity
  8
labels
 62
    51
420
 16187201
100
AcDbLine
 10
209.1573125085601
 20
52.72838377826267
 30
0.0
 11
207.3026100085602
 21
52.72838377826267
 31
0.0
  0
LINE
  5
6FA
330
D67
100
AcDbEntity
  8
labels
 62
    51
420
 16187201
100
AcDbLine
 10
208.2919504585601
 20
56.28478627826263
 30
0.0
 11
209.0338244585602
 21
56.28478627826263
 31
0.0
  0
LINE
  5
6FB
330
D67
100
AcDbEntity
  8
labels
 62
    51
420
 16187201
100
AcDbLine
 10
209.0338244585602
 20
56.28478627826263
 30
0.0
 11
209.0338244585602
 21
55.42637277826262
 31
0.0
  0
LINE
  5
6FC
330
D67
100
AcDbEntity
  8
labels
 62
    51
420
 16187201
100
AcDbLine
 10
209.0338244585602
 20
55.42637277826262
 30
0.0
 11
208.2919504585601
 21
55.42637277826262
 31
0.0
  0
LINE
  5
6FD
330
D67
100
AcDbEntity
  8
labels
 62
    51
420
 16187201
100
AcDbLine
 10
208.2919504585601
 20
55.42637277826262
 30
0.0
 11
208.2919504585601
 21
56.28478627826263
 31
0.0
  0
LINE
  5
6FE
330
D67
100
AcDbEntity
  8
labels
 62
    51
420
 16187201
100
AcDbLine
 10
209.5282519585602
 20
56.28478627826263
 30
0.0
 11
210.2701308585601
 21
56.28478627826263
 31
0.0
  0
LINE
  5
6FF
330
D67
100
AcDbEntity
  8
labels
 62
    51
420
 16187201
100
AcDbLine
 10
210.2701308585601
 20
56.28478627826263
 30
0.0
 11
210.2701308585601
 21
55.42637277826262
 31
0.0
  0
LINE
  5
700
330
D67
100
AcDbEntity
  8
labels
 62
    51
420
 16187201
100
AcDbLine
 10
210.2701308585601
 20
55.42637277826262
 30
0.0
 11
209.5282519585602
 21
55.42637277826262
 31
0.0
  0
LINE
  5
701
330
D67
100
AcDbEntity
  8
labels
 62
    51
420
 16187201
100
AcDbLine
 10
209.5282519585602
 20
55.42637277826262
 30
0.0
 11
209.5282519585602
 21
56.28478627826263
 31
0.0
  0
LINE
  5
702
330
D67
100
AcDbEntity
  8
labels
 62
    51
420
 16187201
100
AcDbLine
 10
207.4264218085602
 20
57.26578377826265
 30
0.0
 11
208.1683059585601
 21
57.26578377826265
 31
0.0
  0
LINE
  5
703
330
D67
100
AcDbEntity
  8
labels
 62
    51
420
 16187201
100
AcDbLine
 10
208.1683059585601
 20
57.26578377826265
 30
0.0
 11
208.1683059585601
 21
57.75635777826266
 31
0.0
  0
LINE
  5
704
330
D67
100
AcDbEntity
  8
labels
 62
    51
420
 16187201
100
AcDbLine
 10
208.1683059585601
 20
57.75635777826266
 30
0.0
 11
210.6409086085601
 21
57.75635777826266
 31
0.0
  0
LINE
  5
705
330
D67
100
AcDbEntity
  8
labels
 62
    51
420
 16187201
100
AcDbLine
 10
210.6409086085601
 20
57.75635777826266
 30
0.0
 11
210.6409086085601
 21
57.26578377826265
 31
0.0
  0
LINE
  5
706
330
D67
100
AcDbEntity
  8
labels
 62
    51
420
 16187201
100
AcDbLine
 10
210.6409086085601
 20
57.26578377826265
 30
0.0
 11
211.2591440585601
 21
57.26578377826265
 31
0.0
  0
LINE
  5
707
330
D67
100
AcDbEntity
  8
labels
 62
    51
420
 16187201
100
AcDbLine
 10
211.2591440585601
 20
57.26578377826265
 30
0.0
 11
211.2591440585601
 21
54.56793477826265
 31
0.0
  0
LINE
  5
708
330
D67
100
AcDbEntity
  8
labels
 62
    51
420
 16187201
100
AcDbLine
 10
211.2591440585601
 20
54.56793477826265
 30
0.0
 11
210.6409086085601
 21
54.56793477826265
 31
0.0
  0
LINE
  5
709
330
D67
100
AcDbEntity
  8
labels
 62
    51
420
 16187201
100
AcDbLine
 10
210.6409086085601
 20
54.56793477826265
 30
0.0
 11
210.6409086085601
 21
54.07736427826268
 31
0.0
  0
LINE
  5
70A
330
D67
100
AcDbEntity
  8
labels
 62
    51
420
 16187201
100
AcDbLine
 10
210.6409086085601
 20
54.07736427826268
 30
0.0
 11
210.2701308585601
 21
54.07736427826268
 31
0.0
  0
LINE
  5
70B
330
D67
100
AcDbEntity
  8
labels
 62
    51
420
 16187201
100
AcDbLine
 10
210.2701308585601
 20
54.07736427826268
 30
0.0
 11
210.2701308585601
 21
53.34168527826267
 31
0.0
  0
LINE
  5
70C
330
D67
100
AcDbEntity
  8
labels
 62
    51
420
 16187201
100
AcDbLine
 10
210.2701308585601
 20
53.34168527826267
 30
0.0
 11
211.3827885585602
 21
53.34168527826267
 31
0.0
  0
LINE
  5
70D
330
D67
100
AcDbEntity
  8
labels
 62
    51
420
 16187201
100
AcDbLine
 10
211.3827885585602
 20
53.34168527826267
 30
0.0
 11
211.3827885585602
 21
52.72838377826267
 31
0.0
  0
LINE
  5
70E
330
D67
100
AcDbEntity
  8
labels
 62
    51
420
 16187201
100
AcDbLine
 10
211.3827885585602
 20
52.72838377826267
 30
0.0
 11
209.6518968085601
 21
52.72838377826267
 31
0.0
  0
LINE
  5
70F
330
D67
100
AcDbEntity
  8
labels
 62
    51
420
 16187201
100
AcDbLine
 10
209.6518968085601
 20
52.72838377826267
 30
0.0
 11
209.6518968085601
 21
54.07736427826268
 31
0.0
  0
LINE
  5
710
330
D67
100
AcDbEntity
  8
labels
 62
    51
420
 16187201
100
AcDbLine
 10
209.6518968085601
 20
54.07736427826268
 30
0.0
 11
209.1573125085601
 21
54.07736427826268
 31
0.0
  0
LINE
  5
711
330
D67
100
AcDbEntity
  8
labels
 62
    51
420
 16187201
100
AcDbLine
 10
209.1573125085601
 20
54.07736427826268
 30
0.0
 11
209.1573125085601
 21
52.72838377826267
 31
0.0
  0
LINE
  5
712
330
D67
100
AcDbEntity
  8
labels
 62
    51
420
 16187201
100
AcDbLine
 10
209.1573125085601
 20
52.72838377826267
 30
0.0
 11
207.3026100085602
 21
52.72838377826267
 31
0.0
  0
LINE
  5
713
330
D67
100
AcDbEntity
  8
labels
 62
    51
420
 16187201
100
AcDbLine
 10
207.3026100085602
 20
52.72838377826267
 30
0.0
 11
207.3026100085602
 21
53.34168527826267
 31
0.0
  0
LINE
  5
714
330
D67
100
AcDbEntity
  8
labels
 62
    51
420
 16187201
100
AcDbLine
 10
207.3026100085602
 20
53.34168527826267
 30
0.0
 11
208.5392454085601
 21
53.34168527826267
 31
0.0
  0
LINE
  5
715
330
D67
100
AcDbEntity
  8
labels
 62
    51
420
 16187201
100
AcDbLine
 10
208.5392454085601
 20
53.34168527826267
 30
0.0
 11
208.5392454085601
 21
54.07736427826268
 31
0.0
  0
LINE
  5
716
330
D67
100
AcDbEntity
  8
labels
 62
    51
420
 16187201
100
AcDbLine
 10
208.5392454085601
 20
54.07736427826268
 30
0.0
 11
208.1683059585601
 21
54.07736427826268
 31
0.0
  0
LINE
  5
717
330
D67
100
AcDbEntity
  8
labels
 62
    51
420
 16187201
100
AcDbLine
 10
208.1683059585601
 20
54.07736427826268
 30
0.0
 11
208.1683059585601
 21
54.56793477826265
 31
0.0
  0
LINE
  5
718
330
D67
100
AcDbEntity
  8
labels
 62
    51
420
 16187201
100
AcDbLine
 10
208.1683059585601
 20
54.56793477826265
 30
0.0
 11
207.4264218085602
 21
54.56793477826265
 31
0.0
  0
LINE
  5
719
330
D67
100
AcDbEntity
  8
labels
 62
    51
420
 16187201
100
AcDbLine
 10
207.4264218085602
 20
54.56793477826265
 30
0.0
 11
207.4264218085602
 21
57.26578377826265
 31
0.0
  0
HATCH
  5
71A
330
D67
100
AcDbEntity
  8
labels
 62
    51
420
 16187201
100
AcDbHatch
 10
0.0
 20
0.0
 30
0.0
210
0.0
220
0.0
230
1.0
  2
SOLID
 70
     1
 71
     0
 91
        3
 92
        0
 93
        4
 72
     1
 10
209.5282519585602
 20
55.42637277826262
 11
209.5282519585602
 21
56.28478627826263
 72
     1
 10
209.5282519585602
 20
56.28478627826263
 11
210.2701308585601
 21
56.28478627826263
 72
     1
 10
210.2701308585601
 20
56.28478627826263
 11
210.2701308585601
 21
55.42637277826262
 72
     1
 10
210.2701308585601
 20
55.42637277826262
 11
209.5282519585602
 21
55.42637277826262
 97
        0
 92
        0
 93
       24
 72
     1
 10
211.2591440585601
 20
57.26578377826265
 11
211.2591440585601
 21
54.56793477826265
 72
     1
 10
211.2591440585601
 20
54.56793477826265
 11
210.6409086085601
 21
54.56793477826265
 72
     1
 10
210.6409086085601
 20
54.56793477826265
 11
210.6409086085601
 21
54.07736427826268
 72
     1
 10
210.6409086085601
 20
54.07736427826268
 11
210.2701308585601
 21
54.07736427826268
 72
     1
 10
210.2701308585601
 20
54.07736427826268
 11
210.2701308585601
 21
53.34168527826267
 72
     1
 10
210.2701308585601
 20
53.34168527826267
 11
211.3827885585602
 21
53.34168527826267
 72
     1
 10
211.3827885585602
 20
53.34168527826267
 11
211.3827885585602
 21
52.72838377826267
 72
     1
 10
211.3827885585602
 20
52.72838377826267
 11
209.6518968085601
 21
52.72838377826267
 72
     1
 10
209.6518968085601
 20
52.72838377826267
 11
209.6518968085601
 21
54.07736427826268
 72
     1
 10
209.6518968085601
 20
54.07736427826268
 11
209.1573125085601
 21
54.07736427826268
 72
     1
 10
209.1573125085601
 20
54.07736427826268
 11
209.1573125085601
 21
52.72838377826267
 72
     1
 10
209.1573125085601
 20
52.72838377826267
 11
207.3026100085602
 21
52.72838377826267
 72
     1
 10
207.3026100085602
 20
52.72838377826267
 11
207.3026100085602
 21
53.34168527826267
 72
     1
 10
207.3026100085602
 20
53.34168527826267
 11
208.5392454085601
 21
53.34168527826267
 72
     1
 10
208.5392454085601
 20
53.34168527826267
 11
208.5392454085601
 21
54.07736427826268
 72
     1
 10
208.5392454085601
 20
54.07736427826268
 11
208.1683059585601
 21
54.07736427826268
 72
     1
 10
208.1683059585601
 20
54.07736427826268
 11
208.1683059585601
 21
54.56793477826265
 72
     1
 10
208.1683059585601
 20
54.56793477826265
 11
207.4264218085602
 21
54.56793477826265
 72
     1
 10
207.4264218085602
 20
54.56793477826265
 11
207.4264218085602
 21
57.26578377826265
 72
     1
 10
207.4264218085602
 20
57.26578377826265
 11
208.1683059585601
 21
57.26578377826265
 72
     1
 10
208.1683059585601
 20
57.26578377826265
 11
208.1683059585601
 21
57.75635777826266
 72
     1
 10
208.1683059585601
 20
57.75635777826266
 11
210.6409086085601
 21
57.75635777826266
 72
     1
 10
210.6409086085601
 20
57.75635777826266
 11
210.6409086085601
 21
57.26578377826265
 72
     1
 10
210.6409086085601
 20
57.26578377826265
 11
211.2591440585601
 21
57.26578377826265
 97
        0
 92
        0
 93
        4
 72
     1
 10
208.2919504585601
 20
56.28478627826263
 11
209.0338244585602
 21
56.28478627826263
 72
     1
 10
209.0338244585602
 20
56.28478627826263
 11
209.0338244585602
 21
55.42637277826262
 72
     1
 10
209.0338244585602
 20
55.42637277826262
 11
208.2919504585601
 21
55.42637277826262
 72
     1
 10
208.2919504585601
 20
55.42637277826262
 11
208.2919504585601
 21
56.28478627826263
 97
        0
 75
     0
 76
     1
 98
        0
  0
LINE
  5
71B
330
D67
100
AcDbEntity
  8
labels
 62
    51
420
 16187201
100
AcDbLine
 10
217.15829360856
 20
57.26578377826265
 30
0.0
 11
217.15829360856
 21
54.56793477826265
 31
0.0
  0
LINE
  5
71C
330
D67
100
AcDbEntity
  8
labels
 62
    51
420
 16187201
100
AcDbLine
 10
217.15829360856
 20
54.56793477826265
 30
0.0
 11
216.54005815856
 21
54.56793477826265
 31
0.0
  0
LINE
  5
71D
330
D67
100
AcDbEntity
  8
labels
 62
    51
420
 16187201
100
AcDbLine
 10
216.54005815856
 20
54.56793477826265
 30
0.0
 11
216.54005815856
 21
54.07736427826268
 31
0.0
  0
LINE
  5
71E
330
D67
100
AcDbEntity
  8
labels
 62
    51
420
 16187201
100
AcDbLine
 10
216.54005815856
 20
54.07736427826268
 30
0.0
 11
216.16928040856
 21
54.07736427826268
 31
0.0
  0
LINE
  5
71F
330
D67
100
AcDbEntity
  8
labels
 62
    51
420
 16187201
100
AcDbLine
 10
216.16928040856
 20
54.07736427826268
 30
0.0
 11
216.16928040856
 21
53.34168527826267
 31
0.0
  0
LINE
  5
720
330
D67
100
AcDbEntity
  8
labels
 62
    51
420
 16187201
100
AcDbLine
 10
216.16928040856
 20
53.34168527826267
 30
0.0
 11
217.2819381085602
 21
53.34168527826267
 31
0.0
  0
LINE
  5
721
330
D67
100
AcDbEntity
  8
labels
 62
    51
420
 16187201
100
AcDbLine
 10
217.2819381085602
 20
53.34168527826267
 30
0.0
 11
217.2819381085602
 21
52.72838377826267
 31
0.0
  0
LINE
  5
722
330
D67
100
AcDbEntity
  8
labels
 62
    51
420
 16187201
100
AcDbLine
 10
217.2819381085602
 20
52.72838377826267
 30
0.0
 11
215.55104635856
 21
52.72838377826267
 31
0.0
  0
LINE
  5
723
330
D67
100
AcDbEntity
  8
labels
 62
    51
420
 16187201
100
AcDbLine
 10
215.55104635856
 20
52.72838377826267
 30
0.0
 11
215.55104635856
 21
54.07736427826268
 31
0.0
  0
LINE
  5
724
330
D67
100
AcDbEntity
  8
labels
 62
    51
420
 16187201
100
AcDbLine
 10
215.55104635856
 20
54.07736427826268
 30
0.0
 11
215.05646205856
 21
54.07736427826268
 31
0.0
  0
LINE
  5
725
330
D67
100
AcDbEntity
  8
labels
 62
    51
420
 16187201
100
AcDbLine
 10
215.05646205856
 20
54.07736427826268
 30
0.0
 11
215.05646205856
 21
52.72838377826267
 31
0.0
  0
LINE
  5
726
330
D67
100
AcDbEntity
  8
labels
 62
    51
420
 16187201
100
AcDbLine
 10
215.05646205856
 20
52.72838377826267
 30
0.0
 11
213.2017595585601
 21
52.72838377826267
 31
0.0
  0
LINE
  5
727
330
D67
100
AcDbEntity
  8
labels
 62
    51
420
 16187201
100
AcDbLine
 10
214.19110000856
 20
56.28478627826263
 30
0.0
 11
214.9329740085601
 21
56.28478627826263
 31
0.0
  0
LINE
  5
728
330
D67
100
AcDbEntity
  8
labels
 62
    51
420
 16187201
100
AcDbLine
 10
214.9329740085601
 20
56.28478627826263
 30
0.0
 11
214.9329740085601
 21
55.42637277826262
 31
0.0
  0
LINE
  5
729
330
D67
100
AcDbEntity
  8
labels
 62
    51
420
 16187201
100
AcDbLine
 10
214.9329740085601
 20
55.42637277826262
 30
0.0
 11
214.19110000856
 21
55.42637277826262
 31
0.0
  0
LINE
  5
72A
330
D67
100
AcDbEntity
  8
labels
 62
    51
420
 16187201
100
AcDbLine
 10
214.19110000856
 20
55.42637277826262
 30
0.0
 11
214.19110000856
 21
56.28478627826263
 31
0.0
  0
LINE
  5
72B
330
D67
100
AcDbEntity
  8
labels
 62
    51
420
 16187201
100
AcDbLine
 10
215.4274015085601
 20
56.28478627826263
 30
0.0
 11
216.16928040856
 21
56.28478627826263
 31
0.0
  0
LINE
  5
72C
330
D67
100
AcDbEntity
  8
labels
 62
    51
420
 16187201
100
AcDbLine
 10
216.16928040856
 20
56.28478627826263
 30
0.0
 11
216.16928040856
 21
55.42637277826262
 31
0.0
  0
LINE
  5
72D
330
D67
100
AcDbEntity
  8
labels
 62
    51
420
 16187201
100
AcDbLine
 10
216.16928040856
 20
55.42637277826262
 30
0.0
 11
215.4274015085601
 21
55.42637277826262
 31
0.0
  0
LINE
  5
72E
330
D67
100
AcDbEntity
  8
labels
 62
    51
420
 16187201
100
AcDbLine
 10
215.4274015085601
 20
55.42637277826262
 30
0.0
 11
215.4274015085601
 21
56.28478627826263
 31
0.0
  0
LINE
  5
72F
330
D67
100
AcDbEntity
  8
labels
 62
    51
420
 16187201
100
AcDbLine
 10
213.3255713585602
 20
57.26578377826265
 30
0.0
 11
214.06745550856
 21
57.26578377826265
 31
0.0
  0
LINE
  5
730
330
D67
100
AcDbEntity
  8
labels
 62
    51
420
 16187201
100
AcDbLine
 10
214.06745550856
 20
57.26578377826265
 30
0.0
 11
214.06745550856
 21
57.75635777826266
 31
0.0
  0
LINE
  5
731
330
D67
100
AcDbEntity
  8
labels
 62
    51
420
 16187201
100
AcDbLine
 10
214.06745550856
 20
57.75635777826266
 30
0.0
 11
216.54005815856
 21
57.75635777826266
 31
0.0
  0
LINE
  5
732
330
D67
100
AcDbEntity
  8
labels
 62
    51
420
 16187201
100
AcDbLine
 10
216.54005815856
 20
57.75635777826266
 30
0.0
 11
216.54005815856
 21
57.26578377826265
 31
0.0
  0
LINE
  5
733
330
D67
100
AcDbEntity
  8
labels
 62
    51
420
 16187201
100
AcDbLine
 10
216.54005815856
 20
57.26578377826265
 30
0.0
 11
217.15829360856
 21
57.26578377826265
 31
0.0
  0
LINE
  5
734
330
D67
100
AcDbEntity
  8
labels
 62
    51
420
 16187201
100
AcDbLine
 10
217.15829360856
 20
57.26578377826265
 30
0.0
 11
217.15829360856
 21
54.56793477826265
 31
0.0
  0
LINE
  5
735
330
D67
100
AcDbEntity
  8
labels
 62
    51
420
 16187201
100
AcDbLine
 10
217.15829360856
 20
54.56793477826265
 30
0.0
 11
216.54005815856
 21
54.56793477826265
 31
0.0
  0
LINE
  5
736
330
D67
100
AcDbEntity
  8
labels
 62
    51
420
 16187201
100
AcDbLine
 10
216.54005815856
 20
54.56793477826265
 30
0.0
 11
216.54005815856
 21
54.07736427826268
 31
0.0
  0
LINE
  5
737
330
D67
100
AcDbEntity
  8
labels
 62
    51
420
 16187201
100
AcDbLine
 10
216.54005815856
 20
54.07736427826268
 30
0.0
 11
216.16928040856
 21
54.07736427826268
 31
0.0
  0
LINE
  5
738
330
D67
100
AcDbEntity
  8
labels
 62
    51
420
 16187201
100
AcDbLine
 10
216.16928040856
 20
54.07736427826268
 30
0.0
 11
216.16928040856
 21
53.34168527826267
 31
0.0
  0
LINE
  5
739
330
D67
100
AcDbEntity
  8
labels
 62
    51
420
 16187201
100
AcDbLine
 10
216.16928040856
 20
53.34168527826267
 30
0.0
 11
217.2819381085602
 21
53.34168527826267
 31
0.0
  0
LINE
  5
73A
330
D67
100
AcDbEntity
  8
labels
 62
    51
420
 16187201
100
AcDbLine
 10
217.2819381085602
 20
53.34168527826267
 30
0.0
 11
217.2819381085602
 21
52.72838377826267
 31
0.0
  0
LINE
  5
73B
330
D67
100
AcDbEntity
  8
labels
 62
    51
420
 16187201
100
AcDbLine
 10
217.2819381085602
 20
52.72838377826267
 30
0.0
 11
215.55104635856
 21
52.72838377826267
 31
0.0
  0
LINE
  5
73C
330
D67
100
AcDbEntity
  8
labels
 62
    51
420
 16187201
100
AcDbLine
 10
215.55104635856
 20
52.72838377826267
 30
0.0
 11
215.55104635856
 21
54.07736427826268
 31
0.0
  0
LINE
  5
73D
330
D67
100
AcDbEntity
  8
labels
 62
    51
420
 16187201
100
AcDbLine
 10
215.55104635856
 20
54.07736427826268
 30
0.0
 11
215.05646205856
 21
54.07736427826268
 31
0.0
  0
LINE
  5
73E
330
D67
100
AcDbEntity
  8
labels
 62
    51
420
 16187201
100
AcDbLine
 10
215.05646205856
 20
54.07736427826268
 30
0.0
 11
215.05646205856
 21
52.72838377826267
 31
0.0
  0
LINE
  5
73F
330
D67
100
AcDbEntity
  8
labels
 62
    51
420
 16187201
100
AcDbLine
 10
215.05646205856
 20
52.72838377826267
 30
0.0
 11
213.2017595585601
 21
52.72838377826267
 31
0.0
  0
LINE
  5
740
330
D67
100
AcDbEntity
  8
labels
 62
    51
420
 16187201
100
AcDbLine
 10
213.2017595585601
 20
52.72838377826267
 30
0.0
 11
213.2017595585601
 21
53.34168527826267
 31
0.0
  0
LINE
  5
741
330
D67
100
AcDbEntity
  8
labels
 62
    51
420
 16187201
100
AcDbLine
 10
213.2017595585601
 20
53.34168527826267
 30
0.0
 11
214.4383949585601
 21
53.34168527826267
 31
0.0
  0
LINE
  5
742
330
D67
100
AcDbEntity
  8
labels
 62
    51
420
 16187201
100
AcDbLine
 10
214.4383949585601
 20
53.34168527826267
 30
0.0
 11
214.4383949585601
 21
54.07736427826268
 31
0.0
  0
LINE
  5
743
330
D67
100
AcDbEntity
  8
labels
 62
    51
420
 16187201
100
AcDbLine
 10
214.4383949585601
 20
54.07736427826268
 30
0.0
 11
214.06745550856
 21
54.07736427826268
 31
0.0
  0
LINE
  5
744
330
D67
100
AcDbEntity
  8
labels
 62
    51
420
 16187201
100
AcDbLine
 10
214.06745550856
 20
54.07736427826268
 30
0.0
 11
214.06745550856
 21
54.56793477826265
 31
0.0
  0
LINE
  5
745
330
D67
100
AcDbEntity
  8
labels
 62
    51
420
 16187201
100
AcDbLine
 10
214.06745550856
 20
54.56793477826265
 30
0.0
 11
213.3255713585602
 21
54.56793477826265
 31
0.0
  0
LINE
  5
746
330
D67
100
AcDbEntity
  8
labels
 62
    51
420
 16187201
100
AcDbLine
 10
213.3255713585602
 20
54.56793477826265
 30
0.0
 11
213.3255713585602
 21
57.26578377826265
 31
0.0
  0
HATCH
  5
747
330
D67
100
AcDbEntity
  8
labels
 62
    51
420
 16187201
100
AcDbHatch
 10
0.0
 20
0.0
 30
0.0
210
0.0
220
0.0
230
1.0
  2
SOLID
 70
     1
 71
     0
 91
        3
 92
        0
 93
        4
 72
     1
 10
215.4274015085601
 20
55.42637277826262
 11
215.4274015085601
 21
56.28478627826263
 72
     1
 10
215.4274015085601
 20
56.28478627826263
 11
216.16928040856
 21
56.28478627826263
 72
     1
 10
216.16928040856
 20
56.28478627826263
 11
216.16928040856
 21
55.42637277826262
 72
     1
 10
216.16928040856
 20
55.42637277826262
 11
215.4274015085601
 21
55.42637277826262
 97
        0
 92
        0
 93
       24
 72
     1
 10
217.15829360856
 20
57.26578377826265
 11
217.15829360856
 21
54.56793477826265
 72
     1
 10
217.15829360856
 20
54.56793477826265
 11
216.54005815856
 21
54.56793477826265
 72
     1
 10
216.54005815856
 20
54.56793477826265
 11
216.54005815856
 21
54.07736427826268
 72
     1
 10
216.54005815856
 20
54.07736427826268
 11
216.16928040856
 21
54.07736427826268
 72
     1
 10
216.16928040856
 20
54.07736427826268
 11
216.16928040856
 21
53.34168527826267
 72
     1
 10
216.16928040856
 20
53.34168527826267
 11
217.2819381085602
 21
53.34168527826267
 72
     1
 10
217.2819381085602
 20
53.34168527826267
 11
217.2819381085602
 21
52.72838377826267
 72
     1
 10
217.2819381085602
 20
52.72838377826267
 11
215.55104635856
 21
52.72838377826267
 72
     1
 10
215.55104635856
 20
52.72838377826267
 11
215.55104635856
 21
54.07736427826268
 72
     1
 10
215.55104635856
 20
54.07736427826268
 11
215.05646205856
 21
54.07736427826268
 72
     1
 10
215.05646205856
 20
54.07736427826268
 11
215.05646205856
 21
52.72838377826267
 72
     1
 10
215.05646205856
 20
52.72838377826267
 11
213.2017595585601
 21
52.72838377826267
 72
     1
 10
213.2017595585601
 20
52.72838377826267
 11
213.2017595585601
 21
53.34168527826267
 72
     1
 10
213.2017595585601
 20
53.34168527826267
 11
214.4383949585601
 21
53.34168527826267
 72
     1
 10
214.4383949585601
 20
53.34168527826267
 11
214.4383949585601
 21
54.07736427826268
 72
     1
 10
214.4383949585601
 20
54.07736427826268
 11
214.06745550856
 21
54.07736427826268
 72
     1
 10
214.06745550856
 20
54.07736427826268
 11
214.06745550856
 21
54.56793477826265
 72
     1
 10
214.06745550856
 20
54.56793477826265
 11
213.3255713585602
 21
54.56793477826265
 72
     1
 10
213.3255713585602
 20
54.56793477826265
 11
213.3255713585602
 21
57.26578377826265
 72
     1
 10
213.3255713585602
 20
57.26578377826265
 11
214.06745550856
 21
57.26578377826265
 72
     1
 10
214.06745550856
 20
57.26578377826265
 11
214.06745550856
 21
57.75635777826266
 72
     1
 10
214.06745550856
 20
57.75635777826266
 11
216.54005815856
 21
57.75635777826266
 72
     1
 10
216.54005815856
 20
57.75635777826266
 11
216.54005815856
 21
57.26578377826265
 72
     1
 10
216.54005815856
 20
57.26578377826265
 11
217.15829360856
 21
57.26578377826265
 97
        0
 92
        0
 93
        4
 72
     1
 10
214.19110000856
 20
56.28478627826263
 11
214.9329740085601
 21
56.28478627826263
 72
     1
 10
214.9329740085601
 20
56.28478627826263
 11
214.9329740085601
 21
55.42637277826262
 72
     1
 10
214.9329740085601
 20
55.42637277826262
 11
214.19110000856
 21
55.42637277826262
 72
     1
 10
214.19110000856
 20
55.42637277826262
 11
214.19110000856
 21
56.28478627826263
 97
        0
 75
     0
 76
     1
 98
        0
  0
LINE
  5
748
330
D67
100
AcDbEntity
  8
labels
 62
    51
420
 16187201
100
AcDbLine
 10
213.2017595585601
 20
52.72838377826267
 30
0.0
 11
213.2017595585601
 21
53.34168527826267
 31
0.0
  0
LINE
  5
749
330
D67
100
AcDbEntity
  8
labels
 62
    51
420
 16187201
100
AcDbLine
 10
213.2017595585601
 20
53.34168527826267
 30
0.0
 11
214.4383949585601
 21
53.34168527826267
 31
0.0
  0
LINE
  5
74A
330
D67
100
AcDbEntity
  8
labels
 62
    51
420
 16187201
100
AcDbLine
 10
214.4383949585601
 20
53.34168527826267
 30
0.0
 11
214.4383949585601
 21
54.07736427826268
 31
0.0
  0
LINE
  5
74B
330
D67
100
AcDbEntity
  8
labels
 62
    51
420
 16187201
100
AcDbLine
 10
214.4383949585601
 20
54.07736427826268
 30
0.0
 11
214.06745550856
 21
54.07736427826268
 31
0.0
  0
LINE
  5
74C
330
D67
100
AcDbEntity
  8
labels
 62
    51
420
 16187201
100
AcDbLine
 10
214.06745550856
 20
54.07736427826268
 30
0.0
 11
214.06745550856
 21
54.56793477826265
 31
0.0
  0
LINE
  5
74D
330
D67
100
AcDbEntity
  8
labels
 62
    51
420
 16187201
100
AcDbLine
 10
214.06745550856
 20
54.56793477826265
 30
0.0
 11
213.3255713585602
 21
54.56793477826265
 31
0.0
  0
LINE
  5
74E
330
D67
100
AcDbEntity
  8
labels
 62
    51
420
 16187201
100
AcDbLine
 10
213.3255713585602
 20
54.56793477826265
 30
0.0
 11
213.3255713585602
 21
57.26578377826265
 31
0.0
  0
LINE
  5
74F
330
D67
100
AcDbEntity
  8
labels
 62
    51
420
 16187201
100
AcDbLine
 10
213.3255713585602
 20
57.26578377826265
 30
0.0
 11
214.06745550856
 21
57.26578377826265
 31
0.0
  0
LINE
  5
750
330
D67
100
AcDbEntity
  8
labels
 62
    51
420
 16187201
100
AcDbLine
 10
214.06745550856
 20
57.26578377826265
 30
0.0
 11
214.06745550856
 21
57.75635777826266
 31
0.0
  0
LINE
  5
751
330
D67
100
AcDbEntity
  8
labels
 62
    51
420
 16187201
100
AcDbLine
 10
214.06745550856
 20
57.75635777826266
 30
0.0
 11
216.54005815856
 21
57.75635777826266
 31
0.0
  0
LINE
  5
752
330
D67
100
AcDbEntity
  8
labels
 62
    51
420
 16187201
100
AcDbLine
 10
216.54005815856
 20
57.75635777826266
 30
0.0
 11
216.54005815856
 21
57.26578377826265
 31
0.0
  0
LINE
  5
753
330
D67
100
AcDbEntity
  8
labels
 62
    51
420
 16187201
100
AcDbLine
 10
216.54005815856
 20
57.26578377826265
 30
0.0
 11
217.15829360856
 21
57.26578377826265
 31
0.0
  0
LINE
  5
754
330
D67
100
AcDbEntity
  8
labels
 62
    51
420
 16187201
100
AcDbLine
 10
219.9666110085601
 20
57.8286887782626
 30
0.0
 11
222.43921365856
 21
57.8286887782626
 31
0.0
  0
LINE
  5
755
330
D67
100
AcDbEntity
  8
labels
 62
    51
420
 16187201
100
AcDbLine
 10
222.43921365856
 20
57.8286887782626
 30
0.0
 11
222.43921365856
 21
57.33811477826259
 31
0.0
  0
LINE
  5
756
330
D67
100
AcDbEntity
  8
labels
 62
    51
420
 16187201
100
AcDbLine
 10
222.43921365856
 20
57.33811477826259
 30
0.0
 11
223.05744910856
 21
57.33811477826259
 31
0.0
  0
LINE
  5
757
330
D67
100
AcDbEntity
  8
labels
 62
    51
420
 16187201
100
AcDbLine
 10
223.05744910856
 20
57.33811477826259
 30
0.0
 11
223.05744910856
 21
54.64026577826259
 31
0.0
  0
LINE
  5
758
330
D67
100
AcDbEntity
  8
labels
 62
    51
420
 16187201
100
AcDbLine
 10
223.05744910856
 20
54.64026577826259
 30
0.0
 11
222.43921365856
 21
54.64026577826259
 31
0.0
  0
LINE
  5
759
330
D67
100
AcDbEntity
  8
labels
 62
    51
420
 16187201
100
AcDbLine
 10
222.43921365856
 20
54.64026577826259
 30
0.0
 11
222.43921365856
 21
54.14969527826261
 31
0.0
  0
LINE
  5
75A
330
D67
100
AcDbEntity
  8
labels
 62
    51
420
 16187201
100
AcDbLine
 10
222.43921365856
 20
54.14969527826261
 30
0.0
 11
222.06843590856
 21
54.14969527826261
 31
0.0
  0
LINE
  5
75B
330
D67
100
AcDbEntity
  8
labels
 62
    51
420
 16187201
100
AcDbLine
 10
222.06843590856
 20
54.14969527826261
 30
0.0
 11
222.06843590856
 21
53.41401627826261
 31
0.0
  0
LINE
  5
75C
330
D67
100
AcDbEntity
  8
labels
 62
    51
420
 16187201
100
AcDbLine
 10
222.06843590856
 20
53.41401627826261
 30
0.0
 11
223.1810936085602
 21
53.41401627826261
 31
0.0
  0
LINE
  5
75D
330
D67
100
AcDbEntity
  8
labels
 62
    51
420
 16187201
100
AcDbLine
 10
223.1810936085602
 20
53.41401627826261
 30
0.0
 11
223.1810936085602
 21
52.8007147782626
 31
0.0
  0
LINE
  5
75E
330
D67
100
AcDbEntity
  8
labels
 62
    51
420
 16187201
100
AcDbLine
 10
223.1810936085602
 20
52.8007147782626
 30
0.0
 11
221.45020185856
 21
52.8007147782626
 31
0.0
  0
LINE
  5
75F
330
D67
100
AcDbEntity
  8
labels
 62
    51
420
 16187201
100
AcDbLine
 10
221.45020185856
 20
52.8007147782626
 30
0.0
 11
221.45020185856
 21
54.14969527826261
 31
0.0
  0
LINE
  5
760
330
D67
100
AcDbEntity
  8
labels
 62
    51
420
 16187201
100
AcDbLine
 10
221.45020185856
 20
54.14969527826261
 30
0.0
 11
220.95561755856
 21
54.14969527826261
 31
0.0
  0
LINE
  5
761
330
D67
100
AcDbEntity
  8
labels
 62
    51
420
 16187201
100
AcDbLine
 10
220.95561755856
 20
54.14969527826261
 30
0.0
 11
220.95561755856
 21
52.8007147782626
 31
0.0
  0
LINE
  5
762
330
D67
100
AcDbEntity
  8
labels
 62
    51
420
 16187201
100
AcDbLine
 10
220.95561755856
 20
52.8007147782626
 30
0.0
 11
219.1009150585601
 21
52.8007147782626
 31
0.0
  0
LINE
  5
763
330
D67
100
AcDbEntity
  8
labels
 62
    51
420
 16187201
100
AcDbLine
 10
219.1009150585601
 20
52.8007147782626
 30
0.0
 11
219.1009150585601
 21
53.41401627826261
 31
0.0
  0
LINE
  5
764
330
D67
100
AcDbEntity
  8
labels
 62
    51
420
 16187201
100
AcDbLine
 10
219.1009150585601
 20
53.41401627826261
 30
0.0
 11
220.3375504585601
 21
53.41401627826261
 31
0.0
  0
LINE
  5
765
330
D67
100
AcDbEntity
  8
labels
 62
    51
420
 16187201
100
AcDbLine
 10
220.3375504585601
 20
53.41401627826261
 30
0.0
 11
220.3375504585601
 21
54.14969527826261
 31
0.0
  0
LINE
  5
766
330
D67
100
AcDbEntity
  8
labels
 62
    51
420
 16187201
100
AcDbLine
 10
220.3375504585601
 20
54.14969527826261
 30
0.0
 11
219.9666110085601
 21
54.14969527826261
 31
0.0
  0
LINE
  5
767
330
D67
100
AcDbEntity
  8
labels
 62
    51
420
 16187201
100
AcDbLine
 10
219.9666110085601
 20
54.14969527826261
 30
0.0
 11
219.9666110085601
 21
54.64026577826259
 31
0.0
  0
LINE
  5
768
330
D67
100
AcDbEntity
  8
labels
 62
    51
420
 16187201
100
AcDbLine
 10
219.9666110085601
 20
54.64026577826259
 30
0.0
 11
219.2247268585602
 21
54.64026577826259
 31
0.0
  0
LINE
  5
769
330
D67
100
AcDbEntity
  8
labels
 62
    51
420
 16187201
100
AcDbLine
 10
219.2247268585602
 20
54.64026577826259
 30
0.0
 11
219.2247268585602
 21
57.33811477826259
 31
0.0
  0
HATCH
  5
76A
330
D67
100
AcDbEntity
  8
labels
 62
    51
420
 16187201
100
AcDbHatch
 10
0.0
 20
0.0
 30
0.0
210
0.0
220
0.0
230
1.0
  2
SOLID
 70
     1
 71
     0
 91
        3
 92
        0
 93
        4
 72
     1
 10
221.3265570085601
 20
55.49870377826255
 11
221.3265570085601
 21
56.35711727826256
 72
     1
 10
221.3265570085601
 20
56.35711727826256
 11
222.06843590856
 21
56.35711727826256
 72
     1
 10
222.06843590856
 20
56.35711727826256
 11
222.06843590856
 21
55.49870377826255
 72
     1
 10
222.06843590856
 20
55.49870377826255
 11
221.3265570085601
 21
55.49870377826255
 97
        0
 92
        0
 93
       24
 72
     1
 10
223.05744910856
 20
57.33811477826259
 11
223.05744910856
 21
54.64026577826259
 72
     1
 10
223.05744910856
 20
54.64026577826259
 11
222.43921365856
 21
54.64026577826259
 72
     1
 10
222.43921365856
 20
54.64026577826259
 11
222.43921365856
 21
54.14969527826261
 72
     1
 10
222.43921365856
 20
54.14969527826261
 11
222.06843590856
 21
54.14969527826261
 72
     1
 10
222.06843590856
 20
54.14969527826261
 11
222.06843590856
 21
53.41401627826261
 72
     1
 10
222.06843590856
 20
53.41401627826261
 11
223.1810936085602
 21
53.41401627826261
 72
     1
 10
223.1810936085602
 20
53.41401627826261
 11
223.1810936085602
 21
52.8007147782626
 72
     1
 10
223.1810936085602
 20
52.8007147782626
 11
221.45020185856
 21
52.8007147782626
 72
     1
 10
221.45020185856
 20
52.8007147782626
 11
221.45020185856
 21
54.14969527826261
 72
     1
 10
221.45020185856
 20
54.14969527826261
 11
220.95561755856
 21
54.14969527826261
 72
     1
 10
220.95561755856
 20
54.14969527826261
 11
220.95561755856
 21
52.8007147782626
 72
     1
 10
220.95561755856
 20
52.8007147782626
 11
219.1009150585601
 21
52.8007147782626
 72
     1
 10
219.1009150585601
 20
52.8007147782626
 11
219.1009150585601
 21
53.41401627826261
 72
     1
 10
219.1009150585601
 20
53.41401627826261
 11
220.3375504585601
 21
53.41401627826261
 72
     1
 10
220.3375504585601
 20
53.41401627826261
 11
220.3375504585601
 21
54.14969527826261
 72
     1
 10
220.3375504585601
 20
54.14969527826261
 11
219.9666110085601
 21
54.14969527826261
 72
     1
 10
219.9666110085601
 20
54.14969527826261
 11
219.9666110085601
 21
54.64026577826259
 72
     1
 10
219.9666110085601
 20
54.64026577826259
 11
219.2247268585602
 21
54.64026577826259
 72
     1
 10
219.2247268585602
 20
54.64026577826259
 11
219.2247268585602
 21
57.33811477826259
 72
     1
 10
219.2247268585602
 20
57.33811477826259
 11
219.9666110085601
 21
57.33811477826259
 72
     1
 10
219.9666110085601
 20
57.33811477826259
 11
219.9666110085601
 21
57.8286887782626
 72
     1
 10
219.9666110085601
 20
57.8286887782626
 11
222.43921365856
 21
57.8286887782626
 72
     1
 10
222.43921365856
 20
57.8286887782626
 11
222.43921365856
 21
57.33811477826259
 72
     1
 10
222.43921365856
 20
57.33811477826259
 11
223.05744910856
 21
57.33811477826259
 97
        0
 92
        0
 93
        4
 72
     1
 10
220.09025550856
 20
56.35711727826256
 11
220.8321295085601
 21
56.35711727826256
 72
     1
 10
220.8321295085601
 20
56.35711727826256
 11
220.8321295085601
 21
55.49870377826255
 72
     1
 10
220.8321295085601
 20
55.49870377826255
 11
220.09025550856
 21
55.49870377826255
 72
     1
 10
220.09025550856
 20
55.49870377826255
 11
220.09025550856
 21
56.35711727826256
 97
        0
 75
     0
 76
     1
 98
        0
  0
LINE
  5
76B
330
D67
100
AcDbEntity
  8
labels
 62
    51
420
 16187201
100
AcDbLine
 10
219.1009150585601
 20
52.8007147782626
 30
0.0
 11
219.1009150585601
 21
53.41401627826261
 31
0.0
  0
LINE
  5
76C
330
D67
100
AcDbEntity
  8
labels
 62
    51
420
 16187201
100
AcDbLine
 10
219.1009150585601
 20
53.41401627826261
 30
0.0
 11
220.3375504585601
 21
53.41401627826261
 31
0.0
  0
LINE
  5
76D
330
D67
100
AcDbEntity
  8
labels
 62
    51
420
 16187201
100
AcDbLine
 10
220.3375504585601
 20
53.41401627826261
 30
0.0
 11
220.3375504585601
 21
54.14969527826261
 31
0.0
  0
LINE
  5
76E
330
D67
100
AcDbEntity
  8
labels
 62
    51
420
 16187201
100
AcDbLine
 10
220.3375504585601
 20
54.14969527826261
 30
0.0
 11
219.9666110085601
 21
54.14969527826261
 31
0.0
  0
LINE
  5
76F
330
D67
100
AcDbEntity
  8
labels
 62
    51
420
 16187201
100
AcDbLine
 10
219.9666110085601
 20
54.14969527826261
 30
0.0
 11
219.9666110085601
 21
54.64026577826259
 31
0.0
  0
LINE
  5
770
330
D67
100
AcDbEntity
  8
labels
 62
    51
420
 16187201
100
AcDbLine
 10
219.9666110085601
 20
54.64026577826259
 30
0.0
 11
219.2247268585602
 21
54.64026577826259
 31
0.0
  0
LINE
  5
771
330
D67
100
AcDbEntity
  8
labels
 62
    51
420
 16187201
100
AcDbLine
 10
219.2247268585602
 20
54.64026577826259
 30
0.0
 11
219.2247268585602
 21
57.33811477826259
 31
0.0
  0
LINE
  5
772
330
D67
100
AcDbEntity
  8
labels
 62
    51
420
 16187201
100
AcDbLine
 10
219.2247268585602
 20
57.33811477826259
 30
0.0
 11
219.9666110085601
 21
57.33811477826259
 31
0.0
  0
LINE
  5
773
330
D67
100
AcDbEntity
  8
labels
 62
    51
420
 16187201
100
AcDbLine
 10
219.9666110085601
 20
57.33811477826259
 30
0.0
 11
219.9666110085601
 21
57.8286887782626
 31
0.0
  0
LINE
  5
774
330
D67
100
AcDbEntity
  8
labels
 62
    51
420
 16187201
100
AcDbLine
 10
219.9666110085601
 20
57.8286887782626
 30
0.0
 11
222.43921365856
 21
57.8286887782626
 31
0.0
  0
LINE
  5
775
330
D67
100
AcDbEntity
  8
labels
 62
    51
420
 16187201
100
AcDbLine
 10
222.43921365856
 20
57.8286887782626
 30
0.0
 11
222.43921365856
 21
57.33811477826259
 31
0.0
  0
LINE
  5
776
330
D67
100
AcDbEntity
  8
labels
 62
    51
420
 16187201
100
AcDbLine
 10
222.43921365856
 20
57.33811477826259
 30
0.0
 11
223.05744910856
 21
57.33811477826259
 31
0.0
  0
LINE
  5
777
330
D67
100
AcDbEntity
  8
labels
 62
    51
420
 16187201
100
AcDbLine
 10
223.05744910856
 20
57.33811477826259
 30
0.0
 11
223.05744910856
 21
54.64026577826259
 31
0.0
  0
LINE
  5
778
330
D67
100
AcDbEntity
  8
labels
 62
    51
420
 16187201
100
AcDbLine
 10
223.05744910856
 20
54.64026577826259
 30
0.0
 11
222.43921365856
 21
54.64026577826259
 31
0.0
  0
LINE
  5
779
330
D67
100
AcDbEntity
  8
labels
 62
    51
420
 16187201
100
AcDbLine
 10
222.43921365856
 20
54.64026577826259
 30
0.0
 11
222.43921365856
 21
54.14969527826261
 31
0.0
  0
LINE
  5
77A
330
D67
100
AcDbEntity
  8
labels
 62
    51
420
 16187201
100
AcDbLine
 10
222.43921365856
 20
54.14969527826261
 30
0.0
 11
222.06843590856
 21
54.14969527826261
 31
0.0
  0
LINE
  5
77B
330
D67
100
AcDbEntity
  8
labels
 62
    51
420
 16187201
100
AcDbLine
 10
222.06843590856
 20
54.14969527826261
 30
0.0
 11
222.06843590856
 21
53.41401627826261
 31
0.0
  0
LINE
  5
77C
330
D67
100
AcDbEntity
  8
labels
 62
    51
420
 16187201
100
AcDbLine
 10
222.06843590856
 20
53.41401627826261
 30
0.0
 11
223.1810936085602
 21
53.41401627826261
 31
0.0
  0
LINE
  5
77D
330
D67
100
AcDbEntity
  8
labels
 62
    51
420
 16187201
100
AcDbLine
 10
223.1810936085602
 20
53.41401627826261
 30
0.0
 11
223.1810936085602
 21
52.8007147782626
 31
0.0
  0
LINE
  5
77E
330
D67
100
AcDbEntity
  8
labels
 62
    51
420
 16187201
100
AcDbLine
 10
223.1810936085602
 20
52.8007147782626
 30
0.0
 11
221.45020185856
 21
52.8007147782626
 31
0.0
  0
LINE
  5
77F
330
D67
100
AcDbEntity
  8
labels
 62
    51
420
 16187201
100
AcDbLine
 10
221.45020185856
 20
52.8007147782626
 30
0.0
 11
221.45020185856
 21
54.14969527826261
 31
0.0
  0
LINE
  5
780
330
D67
100
AcDbEntity
  8
labels
 62
    51
420
 16187201
100
AcDbLine
 10
221.45020185856
 20
54.14969527826261
 30
0.0
 11
220.95561755856
 21
54.14969527826261
 31
0.0
  0
LINE
  5
781
330
D67
100
AcDbEntity
  8
labels
 62
    51
420
 16187201
100
AcDbLine
 10
220.95561755856
 20
54.14969527826261
 30
0.0
 11
220.95561755856
 21
52.8007147782626
 31
0.0
  0
LINE
  5
782
330
D67
100
AcDbEntity
  8
labels
 62
    51
420
 16187201
100
AcDbLine
 10
220.95561755856
 20
52.8007147782626
 30
0.0
 11
219.1009150585601
 21
52.8007147782626
 31
0.0
  0
LINE
  5
783
330
D67
100
AcDbEntity
  8
labels
 62
    51
420
 16187201
100
AcDbLine
 10
220.09025550856
 20
56.35711727826256
 30
0.0
 11
220.8321295085601
 21
56.35711727826256
 31
0.0
  0
LINE
  5
784
330
D67
100
AcDbEntity
  8
labels
 62
    51
420
 16187201
100
AcDbLine
 10
220.8321295085601
 20
56.35711727826256
 30
0.0
 11
220.8321295085601
 21
55.49870377826255
 31
0.0
  0
LINE
  5
785
330
D67
100
AcDbEntity
  8
labels
 62
    51
420
 16187201
100
AcDbLine
 10
220.8321295085601
 20
55.49870377826255
 30
0.0
 11
220.09025550856
 21
55.49870377826255
 31
0.0
  0
LINE
  5
786
330
D67
100
AcDbEntity
  8
labels
 62
    51
420
 16187201
100
AcDbLine
 10
220.09025550856
 20
55.49870377826255
 30
0.0
 11
220.09025550856
 21
56.35711727826256
 31
0.0
  0
LINE
  5
787
330
D67
100
AcDbEntity
  8
labels
 62
    51
420
 16187201
100
AcDbLine
 10
221.3265570085601
 20
56.35711727826256
 30
0.0
 11
222.06843590856
 21
56.35711727826256
 31
0.0
  0
LINE
  5
788
330
D67
100
AcDbEntity
  8
labels
 62
    51
420
 16187201
100
AcDbLine
 10
222.06843590856
 20
56.35711727826256
 30
0.0
 11
222.06843590856
 21
55.49870377826255
 31
0.0
  0
LINE
  5
789
330
D67
100
AcDbEntity
  8
labels
 62
    51
420
 16187201
100
AcDbLine
 10
222.06843590856
 20
55.49870377826255
 30
0.0
 11
221.3265570085601
 21
55.49870377826255
 31
0.0
  0
LINE
  5
78A
330
D67
100
AcDbEntity
  8
labels
 62
    51
420
 16187201
100
AcDbLine
 10
221.3265570085601
 20
55.49870377826255
 30
0.0
 11
221.3265570085601
 21
56.35711727826256
 31
0.0
  0
LINE
  5
78B
330
D67
100
AcDbEntity
  8
labels
 62
    51
420
 16187201
100
AcDbLine
 10
219.2247268585602
 20
57.33811477826259
 30
0.0
 11
219.9666110085601
 21
57.33811477826259
 31
0.0
  0
LINE
  5
78C
330
D67
100
AcDbEntity
  8
labels
 62
    51
420
 16187201
100
AcDbLine
 10
219.9666110085601
 20
57.33811477826259
 30
0.0
 11
219.9666110085601
 21
57.8286887782626
 31
0.0
  0
LINE
  5
78D
330
D67
100
AcDbEntity
  8
labels
 62
    51
420
 16187201
100
AcDbLine
 10
225.86575950856
 20
57.75635777826266
 30
0.0
 11
228.33836215856
 21
57.75635777826266
 31
0.0
  0
LINE
  5
78E
330
D67
100
AcDbEntity
  8
labels
 62
    51
420
 16187201
100
AcDbLine
 10
228.33836215856
 20
57.75635777826266
 30
0.0
 11
228.33836215856
 21
57.26578377826265
 31
0.0
  0
LINE
  5
78F
330
D67
100
AcDbEntity
  8
labels
 62
    51
420
 16187201
100
AcDbLine
 10
228.33836215856
 20
57.26578377826265
 30
0.0
 11
228.95659760856
 21
57.26578377826265
 31
0.0
  0
LINE
  5
790
330
D67
100
AcDbEntity
  8
labels
 62
    51
420
 16187201
100
AcDbLine
 10
228.95659760856
 20
57.26578377826265
 30
0.0
 11
228.95659760856
 21
54.56793477826265
 31
0.0
  0
LINE
  5
791
330
D67
100
AcDbEntity
  8
labels
 62
    51
420
 16187201
100
AcDbLine
 10
228.95659760856
 20
54.56793477826265
 30
0.0
 11
228.33836215856
 21
54.56793477826265
 31
0.0
  0
LINE
  5
792
330
D67
100
AcDbEntity
  8
labels
 62
    51
420
 16187201
100
AcDbLine
 10
228.33836215856
 20
54.56793477826265
 30
0.0
 11
228.33836215856
 21
54.07736427826268
 31
0.0
  0
LINE
  5
793
330
D67
100
AcDbEntity
  8
labels
 62
    51
420
 16187201
100
AcDbLine
 10
228.33836215856
 20
54.07736427826268
 30
0.0
 11
227.96758440856
 21
54.07736427826268
 31
0.0
  0
LINE
  5
794
330
D67
100
AcDbEntity
  8
labels
 62
    51
420
 16187201
100
AcDbLine
 10
227.96758440856
 20
54.07736427826268
 30
0.0
 11
227.96758440856
 21
53.34168527826267
 31
0.0
  0
LINE
  5
795
330
D67
100
AcDbEntity
  8
labels
 62
    51
420
 16187201
100
AcDbLine
 10
227.96758440856
 20
53.34168527826267
 30
0.0
 11
229.0802421085602
 21
53.34168527826267
 31
0.0
  0
LINE
  5
796
330
D67
100
AcDbEntity
  8
labels
 62
    51
420
 16187201
100
AcDbLine
 10
229.0802421085602
 20
53.34168527826267
 30
0.0
 11
229.0802421085602
 21
52.72838377826267
 31
0.0
  0
LINE
  5
797
330
D67
100
AcDbEntity
  8
labels
 62
    51
420
 16187201
100
AcDbLine
 10
229.0802421085602
 20
52.72838377826267
 30
0.0
 11
227.34935035856
 21
52.72838377826267
 31
0.0
  0
LINE
  5
798
330
D67
100
AcDbEntity
  8
labels
 62
    51
420
 16187201
100
AcDbLine
 10
227.34935035856
 20
52.72838377826267
 30
0.0
 11
227.34935035856
 21
54.07736427826268
 31
0.0
  0
LINE
  5
799
330
D67
100
AcDbEntity
  8
labels
 62
    51
420
 16187201
100
AcDbLine
 10
227.34935035856
 20
54.07736427826268
 30
0.0
 11
226.85476605856
 21
54.07736427826268
 31
0.0
  0
LINE
  5
79A
330
D67
100
AcDbEntity
  8
labels
 62
    51
420
 16187201
100
AcDbLine
 10
226.85476605856
 20
54.07736427826268
 30
0.0
 11
226.85476605856
 21
52.72838377826267
 31
0.0
  0
LINE
  5
79B
330
D67
100
AcDbEntity
  8
labels
 62
    51
420
 16187201
100
AcDbLine
 10
226.85476605856
 20
52.72838377826267
 30
0.0
 11
225.0000635585601
 21
52.72838377826267
 31
0.0
  0
LINE
  5
79C
330
D67
100
AcDbEntity
  8
labels
 62
    51
420
 16187201
100
AcDbLine
 10
225.98940400856
 20
56.28478627826263
 30
0.0
 11
226.7312780085601
 21
56.28478627826263
 31
0.0
  0
LINE
  5
79D
330
D67
100
AcDbEntity
  8
labels
 62
    51
420
 16187201
100
AcDbLine
 10
226.7312780085601
 20
56.28478627826263
 30
0.0
 11
226.7312780085601
 21
55.42637277826262
 31
0.0
  0
LINE
  5
79E
330
D67
100
AcDbEntity
  8
labels
 62
    51
420
 16187201
100
AcDbLine
 10
226.7312780085601
 20
55.42637277826262
 30
0.0
 11
225.98940400856
 21
55.42637277826262
 31
0.0
  0
LINE
  5
79F
330
D67
100
AcDbEntity
  8
labels
 62
    51
420
 16187201
100
AcDbLine
 10
225.98940400856
 20
55.42637277826262
 30
0.0
 11
225.98940400856
 21
56.28478627826263
 31
0.0
  0
LINE
  5
7A0
330
D67
100
AcDbEntity
  8
labels
 62
    51
420
 16187201
100
AcDbLine
 10
227.2257055085601
 20
56.28478627826263
 30
0.0
 11
227.96758440856
 21
56.28478627826263
 31
0.0
  0
LINE
  5
7A1
330
D67
100
AcDbEntity
  8
labels
 62
    51
420
 16187201
100
AcDbLine
 10
227.96758440856
 20
56.28478627826263
 30
0.0
 11
227.96758440856
 21
55.42637277826262
 31
0.0
  0
LINE
  5
7A2
330
D67
100
AcDbEntity
  8
labels
 62
    51
420
 16187201
100
AcDbLine
 10
227.96758440856
 20
55.42637277826262
 30
0.0
 11
227.2257055085601
 21
55.42637277826262
 31
0.0
  0
LINE
  5
7A3
330
D67
100
AcDbEntity
  8
labels
 62
    51
420
 16187201
100
AcDbLine
 10
227.2257055085601
 20
55.42637277826262
 30
0.0
 11
227.2257055085601
 21
56.28478627826263
 31
0.0
  0
LINE
  5
7A4
330
D67
100
AcDbEntity
  8
labels
 62
    51
420
 16187201
100
AcDbLine
 10
225.1238753585602
 20
57.26578377826265
 30
0.0
 11
225.86575950856
 21
57.26578377826265
 31
0.0
  0
LINE
  5
7A5
330
D67
100
AcDbEntity
  8
labels
 62
    51
420
 16187201
100
AcDbLine
 10
225.86575950856
 20
57.26578377826265
 30
0.0
 11
225.86575950856
 21
57.75635777826266
 31
0.0
  0
LINE
  5
7A6
330
D67
100
AcDbEntity
  8
labels
 62
    51
420
 16187201
100
AcDbLine
 10
225.86575950856
 20
57.75635777826266
 30
0.0
 11
228.33836215856
 21
57.75635777826266
 31
0.0
  0
LINE
  5
7A7
330
D67
100
AcDbEntity
  8
labels
 62
    51
420
 16187201
100
AcDbLine
 10
228.33836215856
 20
57.75635777826266
 30
0.0
 11
228.33836215856
 21
57.26578377826265
 31
0.0
  0
LINE
  5
7A8
330
D67
100
AcDbEntity
  8
labels
 62
    51
420
 16187201
100
AcDbLine
 10
228.33836215856
 20
57.26578377826265
 30
0.0
 11
228.95659760856
 21
57.26578377826265
 31
0.0
  0
LINE
  5
7A9
330
D67
100
AcDbEntity
  8
labels
 62
    51
420
 16187201
100
AcDbLine
 10
228.95659760856
 20
57.26578377826265
 30
0.0
 11
228.95659760856
 21
54.56793477826265
 31
0.0
  0
LINE
  5
7AA
330
D67
100
AcDbEntity
  8
labels
 62
    51
420
 16187201
100
AcDbLine
 10
228.95659760856
 20
54.56793477826265
 30
0.0
 11
228.33836215856
 21
54.56793477826265
 31
0.0
  0
LINE
  5
7AB
330
D67
100
AcDbEntity
  8
labels
 62
    51
420
 16187201
100
AcDbLine
 10
228.33836215856
 20
54.56793477826265
 30
0.0
 11
228.33836215856
 21
54.07736427826268
 31
0.0
  0
LINE
  5
7AC
330
D67
100
AcDbEntity
  8
labels
 62
    51
420
 16187201
100
AcDbLine
 10
228.33836215856
 20
54.07736427826268
 30
0.0
 11
227.96758440856
 21
54.07736427826268
 31
0.0
  0
LINE
  5
7AD
330
D67
100
AcDbEntity
  8
labels
 62
    51
420
 16187201
100
AcDbLine
 10
227.96758440856
 20
54.07736427826268
 30
0.0
 11
227.96758440856
 21
53.34168527826267
 31
0.0
  0
LINE
  5
7AE
330
D67
100
AcDbEntity
  8
labels
 62
    51
420
 16187201
100
AcDbLine
 10
227.96758440856
 20
53.34168527826267
 30
0.0
 11
229.0802421085602
 21
53.34168527826267
 31
0.0
  0
LINE
  5
7AF
330
D67
100
AcDbEntity
  8
labels
 62
    51
420
 16187201
100
AcDbLine
 10
229.0802421085602
 20
53.34168527826267
 30
0.0
 11
229.0802421085602
 21
52.72838377826267
 31
0.0
  0
LINE
  5
7B0
330
D67
100
AcDbEntity
  8
labels
 62
    51
420
 16187201
100
AcDbLine
 10
229.0802421085602
 20
52.72838377826267
 30
0.0
 11
227.34935035856
 21
52.72838377826267
 31
0.0
  0
LINE
  5
7B1
330
D67
100
AcDbEntity
  8
labels
 62
    51
420
 16187201
100
AcDbLine
 10
227.34935035856
 20
52.72838377826267
 30
0.0
 11
227.34935035856
 21
54.07736427826268
 31
0.0
  0
LINE
  5
7B2
330
D67
100
AcDbEntity
  8
labels
 62
    51
420
 16187201
100
AcDbLine
 10
227.34935035856
 20
54.07736427826268
 30
0.0
 11
226.85476605856
 21
54.07736427826268
 31
0.0
  0
LINE
  5
7B3
330
D67
100
AcDbEntity
  8
labels
 62
    51
420
 16187201
100
AcDbLine
 10
226.85476605856
 20
54.07736427826268
 30
0.0
 11
226.85476605856
 21
52.72838377826267
 31
0.0
  0
LINE
  5
7B4
330
D67
100
AcDbEntity
  8
labels
 62
    51
420
 16187201
100
AcDbLine
 10
226.85476605856
 20
52.72838377826267
 30
0.0
 11
225.0000635585601
 21
52.72838377826267
 31
0.0
  0
LINE
  5
7B5
330
D67
100
AcDbEntity
  8
labels
 62
    51
420
 16187201
100
AcDbLine
 10
225.0000635585601
 20
52.72838377826267
 30
0.0
 11
225.0000635585601
 21
53.34168527826267
 31
0.0
  0
LINE
  5
7B6
330
D67
100
AcDbEntity
  8
labels
 62
    51
420
 16187201
100
AcDbLine
 10
225.0000635585601
 20
53.34168527826267
 30
0.0
 11
226.2366989585601
 21
53.34168527826267
 31
0.0
  0
LINE
  5
7B7
330
D67
100
AcDbEntity
  8
labels
 62
    51
420
 16187201
100
AcDbLine
 10
226.2366989585601
 20
53.34168527826267
 30
0.0
 11
226.2366989585601
 21
54.07736427826268
 31
0.0
  0
LINE
  5
7B8
330
D67
100
AcDbEntity
  8
labels
 62
    51
420
 16187201
100
AcDbLine
 10
226.2366989585601
 20
54.07736427826268
 30
0.0
 11
225.86575950856
 21
54.07736427826268
 31
0.0
  0
LINE
  5
7B9
330
D67
100
AcDbEntity
  8
labels
 62
    51
420
 16187201
100
AcDbLine
 10
225.86575950856
 20
54.07736427826268
 30
0.0
 11
225.86575950856
 21
54.56793477826265
 31
0.0
  0
LINE
  5
7BA
330
D67
100
AcDbEntity
  8
labels
 62
    51
420
 16187201
100
AcDbLine
 10
225.86575950856
 20
54.56793477826265
 30
0.0
 11
225.1238753585602
 21
54.56793477826265
 31
0.0
  0
LINE
  5
7BB
330
D67
100
AcDbEntity
  8
labels
 62
    51
420
 16187201
100
AcDbLine
 10
225.1238753585602
 20
54.56793477826265
 30
0.0
 11
225.1238753585602
 21
57.26578377826265
 31
0.0
  0
HATCH
  5
7BC
330
D67
100
AcDbEntity
  8
labels
 62
    51
420
 16187201
100
AcDbHatch
 10
0.0
 20
0.0
 30
0.0
210
0.0
220
0.0
230
1.0
  2
SOLID
 70
     1
 71
     0
 91
        3
 92
        0
 93
        4
 72
     1
 10
227.2257055085601
 20
55.42637277826262
 11
227.2257055085601
 21
56.28478627826263
 72
     1
 10
227.2257055085601
 20
56.28478627826263
 11
227.96758440856
 21
56.28478627826263
 72
     1
 10
227.96758440856
 20
56.28478627826263
 11
227.96758440856
 21
55.42637277826262
 72
     1
 10
227.96758440856
 20
55.42637277826262
 11
227.2257055085601
 21
55.42637277826262
 97
        0
 92
        0
 93
       24
 72
     1
 10
228.95659760856
 20
57.26578377826265
 11
228.95659760856
 21
54.56793477826265
 72
     1
 10
228.95659760856
 20
54.56793477826265
 11
228.33836215856
 21
54.56793477826265
 72
     1
 10
228.33836215856
 20
54.56793477826265
 11
228.33836215856
 21
54.07736427826268
 72
     1
 10
228.33836215856
 20
54.07736427826268
 11
227.96758440856
 21
54.07736427826268
 72
     1
 10
227.96758440856
 20
54.07736427826268
 11
227.96758440856
 21
53.34168527826267
 72
     1
 10
227.96758440856
 20
53.34168527826267
 11
229.0802421085602
 21
53.34168527826267
 72
     1
 10
229.0802421085602
 20
53.34168527826267
 11
229.0802421085602
 21
52.72838377826267
 72
     1
 10
229.0802421085602
 20
52.72838377826267
 11
227.34935035856
 21
52.72838377826267
 72
     1
 10
227.34935035856
 20
52.72838377826267
 11
227.34935035856
 21
54.07736427826268
 72
     1
 10
227.34935035856
 20
54.07736427826268
 11
226.85476605856
 21
54.07736427826268
 72
     1
 10
226.85476605856
 20
54.07736427826268
 11
226.85476605856
 21
52.72838377826267
 72
     1
 10
226.85476605856
 20
52.72838377826267
 11
225.0000635585601
 21
52.72838377826267
 72
     1
 10
225.0000635585601
 20
52.72838377826267
 11
225.0000635585601
 21
53.34168527826267
 72
     1
 10
225.0000635585601
 20
53.34168527826267
 11
226.2366989585601
 21
53.34168527826267
 72
     1
 10
226.2366989585601
 20
53.34168527826267
 11
226.2366989585601
 21
54.07736427826268
 72
     1
 10
226.2366989585601
 20
54.07736427826268
 11
225.86575950856
 21
54.07736427826268
 72
     1
 10
225.86575950856
 20
54.07736427826268
 11
225.86575950856
 21
54.56793477826265
 72
     1
 10
225.86575950856
 20
54.56793477826265
 11
225.1238753585602
 21
54.56793477826265
 72
     1
 10
225.1238753585602
 20
54.56793477826265
 11
225.1238753585602
 21
57.26578377826265
 72
     1
 10
225.1238753585602
 20
57.26578377826265
 11
225.86575950856
 21
57.26578377826265
 72
     1
 10
225.86575950856
 20
57.26578377826265
 11
225.86575950856
 21
57.75635777826266
 72
     1
 10
225.86575950856
 20
57.75635777826266
 11
228.33836215856
 21
57.75635777826266
 72
     1
 10
228.33836215856
 20
57.75635777826266
 11
228.33836215856
 21
57.26578377826265
 72
     1
 10
228.33836215856
 20
57.26578377826265
 11
228.95659760856
 21
57.26578377826265
 97
        0
 92
        0
 93
        4
 72
     1
 10
225.98940400856
 20
56.28478627826263
 11
226.7312780085601
 21
56.28478627826263
 72
     1
 10
226.7312780085601
 20
56.28478627826263
 11
226.7312780085601
 21
55.42637277826262
 72
     1
 10
226.7312780085601
 20
55.42637277826262
 11
225.98940400856
 21
55.42637277826262
 72
     1
 10
225.98940400856
 20
55.42637277826262
 11
225.98940400856
 21
56.28478627826263
 97
        0
 75
     0
 76
     1
 98
        0
  0
LINE
  5
7BD
330
D67
100
AcDbEntity
  8
labels
 62
    51
420
 16187201
100
AcDbLine
 10
225.0000635585601
 20
52.72838377826267
 30
0.0
 11
225.0000635585601
 21
53.34168527826267
 31
0.0
  0
LINE
  5
7BE
330
D67
100
AcDbEntity
  8
labels
 62
    51
420
 16187201
100
AcDbLine
 10
225.0000635585601
 20
53.34168527826267
 30
0.0
 11
226.2366989585601
 21
53.34168527826267
 31
0.0
  0
LINE
  5
7BF
330
D67
100
AcDbEntity
  8
labels
 62
    51
420
 16187201
100
AcDbLine
 10
226.2366989585601
 20
53.34168527826267
 30
0.0
 11
226.2366989585601
 21
54.07736427826268
 31
0.0
  0
LINE
  5
7C0
330
D67
100
AcDbEntity
  8
labels
 62
    51
420
 16187201
100
AcDbLine
 10
226.2366989585601
 20
54.07736427826268
 30
0.0
 11
225.86575950856
 21
54.07736427826268
 31
0.0
  0
LINE
  5
7C1
330
D67
100
AcDbEntity
  8
labels
 62
    51
420
 16187201
100
AcDbLine
 10
225.86575950856
 20
54.07736427826268
 30
0.0
 11
225.86575950856
 21
54.56793477826265
 31
0.0
  0
LINE
  5
7C2
330
D67
100
AcDbEntity
  8
labels
 62
    51
420
 16187201
100
AcDbLine
 10
225.86575950856
 20
54.56793477826265
 30
0.0
 11
225.1238753585602
 21
54.56793477826265
 31
0.0
  0
LINE
  5
7C3
330
D67
100
AcDbEntity
  8
labels
 62
    51
420
 16187201
100
AcDbLine
 10
225.1238753585602
 20
54.56793477826265
 30
0.0
 11
225.1238753585602
 21
57.26578377826265
 31
0.0
  0
LINE
  5
7C4
330
D67
100
AcDbEntity
  8
labels
 62
    51
420
 16187201
100
AcDbLine
 10
225.1238753585602
 20
57.26578377826265
 30
0.0
 11
225.86575950856
 21
57.26578377826265
 31
0.0
  0
LINE
  5
7C5
330
D67
100
AcDbEntity
  8
labels
 62
    51
420
 16187201
100
AcDbLine
 10
225.86575950856
 20
57.26578377826265
 30
0.0
 11
225.86575950856
 21
57.75635777826266
 31
0.0
  0
CIRCLE
  5
7C6
330
D67
100
AcDbEntity
  8
labels
 62
    51
420
 16187201
100
AcDbCircle
 10
186.3873241844044
 20
36.18229434288116
 30
0.0
 40
1.050518610959573
  0
CIRCLE
  5
7C7
330
D67
100
AcDbEntity
  8
labels
 62
    51
420
 16187201
100
AcDbCircle
 10
182.9994843378384
 20
36.18229434288116
 30
0.0
 40
1.050518610959573
  0
CIRCLE
  5
7C8
330
D67
100
AcDbEntity
  8
labels
 62
    51
420
 16187201
100
AcDbCircle
 10
193.2463078858504
 20
41.4251163673128
 30
0.0
 40
1.467092004331203
  0
HATCH
  5
7C9
330
D67
100
AcDbEntity
  8
labels
 62
    51
420
 16187201
100
AcDbHatch
 10
0.0
 20
0.0
 30
0.0
210
0.0
220
0.0
230
1.0
  2
SOLID
 70
     1
 71
     0
 91
        3
 92
        0
 93
        1
 72
     2
 10
186.3873241844044
 20
36.18229434288116
 40
1.050518610959573
 50
0.0
 51
360.0
 73
     1
 97
        0
 92
        0
 93
        1
 72
     2
 10
182.9994843378384
 20
36.18229434288116
 40
1.050518610959573
 50
0.0
 51
360.0
 73
     1
 97
        0
 92
        0
 93
        1
 72
     2
 10
193.2463078858504
 20
41.4251163673128
 40
1.467092004331203
 50
0.0
 51
360.0
 73
     1
 97
        0
 75
     0
 76
     1
 98
        0
  0
CIRCLE
  5
7CA
330
D67
100
AcDbEntity
  8
labels
 62
    51
420
 16187201
100
AcDbCircle
 10
204.242682940898
 20
42.69394602014633
 30
0.0
 40
1.517111811011998
  0
CIRCLE
  5
7CB
330
D67
100
AcDbEntity
  8
labels
 62
    51
420
 16187201
100
AcDbCircle
 10
202.1270033822841
 20
44.09057108825095
 30
0.0
 40
0.7977193339642824
  0
HATCH
  5
7CC
330
D67
100
AcDbEntity
  8
labels
 62
    51
420
 16187201
100
AcDbHatch
 10
0.0
 20
0.0
 30
0.0
210
0.0
220
0.0
230
1.0
  2
SOLID
 70
     1
 71
     0
 91
        2
 92
        0
 93
        1
 72
     2
 10
204.242682940898
 20
42.69394602014633
 40
1.517111811011998
 50
0.0
 51
360.0
 73
     1
 97
        0
 92
        0
 93
        1
 72
     2
 10
202.1270033822841
 20
44.09057108825095
 40
0.7977193339642824
 50
0.0
 51
360.0
 73
     1
 97
        0
 75
     0
 76
     1
 98
        0
  0
LINE
  5
7D1
330
D67
100
AcDbEntity
  8
labels
 62
    51
420
 16187201
100
AcDbLine
 10
183.6736868963961
 20
42.72401527826264
 30
0.0
 11
183.6736868963961
 21
42.72401527826264
 31
0.0
  0
LINE
  5
7D2
330
D67
100
AcDbEntity
  8
labels
 62
    51
420
 16187201
100
AcDbLine
 10
183.6736868963961
 20
42.72401527826264
 30
0.0
 11
183.6736874458056
 21
42.38028633770958
 31
0.0
  0
LINE
  5
7D3
330
D67
100
AcDbEntity
  8
labels
 62
    51
420
 16187201
100
AcDbLine
 10
184.9369551207241
 20
42.72401527826264
 30
0.0
 11
184.9369545725148
 21
42.38103719117273
 31
0.0
  0
LINE
  5
7D4
330
D67
100
AcDbEntity
  8
labels
 62
    51
420
 16187201
100
AcDbLine
 10
185.2906018085602
 20
42.38124738998683
 30
0.0
 11
184.9369545725148
 21
42.38103719117273
 31
0.0
  0
LINE
  5
7D5
330
D67
100
AcDbEntity
  8
labels
 62
    51
420
 16187201
100
AcDbLine
 10
183.2807373085601
 20
41.08095777826266
 30
0.0
 11
183.6736895229995
 21
41.08072421758114
 31
0.0
  0
ARC
  5
7D8
330
D67
100
AcDbEntity
  8
labels
 62
    51
420
 16187201
100
AcDbCircle
 10
185.2906018085602
 20
41.73050527826268
 30
0.0
 40
0.6507421117241419
100
AcDbArc
 50
269.9659448674827
 51
90.03405513251731
  0
ARC
  5
7DA
330
D67
100
AcDbEntity
  8
labels
 62
    51
420
 16187201
100
AcDbCircle
 10
184.3053210085602
 20
40.73697777826267
 30
0.0
 40
0.6316309361232498
100
AcDbArc
 50
180.0000915848844
 51
359.9999084151157
  0
ARC
  5
7DC
330
D67
100
AcDbEntity
  8
labels
 62
    51
420
 16187201
100
AcDbCircle
 10
183.2807373085601
 20
41.73050527826267
 30
0.0
 40
0.6495475000000077
100
AcDbArc
 50
90.03405513251731
 51
269.9659448674827
  0
ARC
  5
7DE
330
D67
100
AcDbEntity
  8
labels
 62
    51
420
 16187201
100
AcDbCircle
 10
184.3053210085601
 20
42.72401527826264
 30
0.0
 40
0.6316341121639538
100
AcDbArc
 50
359.9999084151157
 51
180.0000915848844
  0
LINE
  5
7DF
330
D67
100
AcDbEntity
  8
labels
 62
    51
420
 16187201
100
AcDbLine
 10
184.9369524929207
 20
41.07997336658869
 30
0.0
 11
184.9369519446834
 21
40.73697777826267
 31
0.0
  0
LINE
  5
7E0
330
D67
100
AcDbEntity
  8
labels
 62
    51
420
 16187201
100
AcDbLine
 10
183.6736874458056
 20
42.38028633770958
 30
0.0
 11
183.2807373085601
 21
42.38005277826268
 31
0.0
  0
LINE
  5
7E1
330
D67
100
AcDbEntity
  8
labels
 62
    51
420
 16187201
100
AcDbLine
 10
183.6736895229995
 20
41.08072421758114
 30
0.0
 11
183.6736900724369
 21
40.73697777826267
 31
0.0
  0
LINE
  5
7E2
330
D67
100
AcDbEntity
  8
labels
 62
    51
420
 16187201
100
AcDbLine
 10
184.9369524929207
 20
41.07997336658869
 30
0.0
 11
185.2906018085602
 21
41.07976316653854
 31
0.0
  0
LINE
  5
7E5
330
D67
100
AcDbEntity
  8
labels
 62
    51
420
 16187201
100
AcDbLine
 10
180.63084720182
 20
41.17302879185155
 30
0.0
 11
180.63084720182
 21
55.83085989605719
 31
0.0
  0
LINE
  5
7E6
330
D67
100
AcDbEntity
  8
labels
 62
    51
420
 16187201
100
AcDbLine
 10
182.3543217518338
 20
41.17302879185155
 30
0.0
 11
182.3543217518338
 21
54.32166853015251
 31
0.0
  0
CIRCLE
  5
7E7
330
D67
100
AcDbEntity
  8
labels
 62
    51
420
 16187201
100
AcDbCircle
 10
188.2966815996949
 20
62.84644398752702
 30
0.0
 40
0.858110385937241
  0
CIRCLE
  5
7E8
330
D67
100
AcDbEntity
  8
labels
 62
    51
420
 16187201
100
AcDbCircle
 10
188.2966815996949
 20
62.84644398752702
 30
0.0
 40
4.401869407342039
  0
CIRCLE
  5
7E9
330
D67
100
AcDbEntity
  8
labels
 62
    51
420
 16187201
100
AcDbCircle
 10
188.2966815996949
 20
62.84644398752702
 30
0.0
 40
7.151552029338297
  0
CIRCLE
  5
7EB
330
D67
100
AcDbEntity
  8
labels
 62
    51
420
 16187201
100
AcDbCircle
 10
188.2966815996949
 20
62.84644398752702
 30
0.0
 40
1.777209307444574
  0
HATCH
  5
7EC
330
D67
100
AcDbEntity
  8
labels
 62
    51
420
 16187201
100
AcDbHatch
 10
0.0
 20
0.0
 30
0.0
210
0.0
220
0.0
230
1.0
  2
SOLID
 70
     1
 71
     0
 91
        1
 92
        0
 93
        1
 72
     2
 10
188.2966815996949
 20
62.84644398752702
 40
0.858110385937241
 50
0.0
 51
360.0
 73
     1
 97
        0
 75
     0
 76
     1
 98
        0
  0
HATCH
  5
7ED
330
D67
100
AcDbEntity
  8
labels
 62
    51
420
 16187201
100
AcDbHatch
 10
0.0
 20
0.0
 30
0.0
210
0.0
220
0.0
230
1.0
  2
SOLID
 70
     1
 71
     0
 91
        2
 92
        0
 93
        1
 72
     2
 10
188.2966815996949
 20
62.84644398752702
 40
4.401869407342039
 50
0.0
 51
360.0
 73
     1
 97
        0
 92
        0
 93
        1
 72
     2
 10
188.2966815996949
 20
62.84644398752702
 40
1.777209307444574
 50
0.0
 51
360.0
 73
     1
 97
        0
 75
     0
 76
     1
 98
        0
  0
ARC
  5
7EF
330
D67
100
AcDbEntity
  8
labels
 62
    51
420
 16187201
100
AcDbCircle
 10
181.4925844768269
 20
41.17302879185155
 30
0.0
 40
0.8617372750069044
100
AcDbArc
 50
180.0
 51
0.0
  0
ARC
  5
7F3
330
D67
100
AcDbEntity
  8
labels
 62
    51
420
 16187201
100
AcDbCircle
 10
188.2966815996949
 20
62.84644398752702
 30
0.0
 40
10.39150793485364
100
AcDbArc
 50
222.4639872042536
 51
235.1208281770135
  0
HATCH
  5
7F4
330
D67
100
AcDbEntity
  8
labels
 62
    51
420
 16187201
100
AcDbHatch
 10
0.0
 20
0.0
 30
0.0
210
0.0
220
0.0
230
1.0
  2
SOLID
 70
     1
 71
     0
 91
        1
 92
        0
 93
        4
 72
     2
 10
181.4925844768269
 20
41.17302879185155
 40
0.8617372750069044
 50
180.0
 51
360.0
 73
     1
 72
     1
 10
182.3543217518338
 20
41.17302879185155
 11
182.3543217518338
 21
54.32166853015251
 72
     2
 10
188.2966815996949
 20
62.84644398752702
 40
10.39150793485364
 50
124.8791718229865
 51
137.5360127957464
 73
     0
 72
     1
 10
180.63084720182
 20
55.83085989605719
 11
180.63084720182
 21
41.17302879185155
 97
        0
 75
     0
 76
     1
 98
        0
  0
CIRCLE
  5
7F7
330
D67
100
AcDbEntity
  8
labels
 62
    51
420
 16187201
100
AcDbCircle
 10
190.6985184983458
 20
45.52668200819714
 30
0.0
 40
1.526035105353688
  0
CIRCLE
  5
7F9
330
D67
100
AcDbEntity
  8
labels
 62
    51
420
 16187201
100
AcDbCircle
 10
198.2968177671267
 20
51.99735835182928
 30
0.0
 40
3.032164574434552
  0
ARC
  5
7FC
330
D67
100
AcDbEntity
  8
labels
 62
    51
420
 16187201
100
AcDbCircle
 10
190.7588971027522
 20
45.51062168122942
 30
0.0
 40
2.821588010527869
100
AcDbArc
 50
56.41210244154063
 51
25.01499654569971
  0
ARC
  5
7FD
330
D67
100
AcDbEntity
  8
labels
 62
    51
420
 16187201
100
AcDbCircle
 10
198.2968177671267
 20
51.99735835182928
 30
0.0
 40
7.268614288127999
100
AcDbArc
 50
226.7426966427012
 51
91.94332307173161
  0
ARC
  5
801
330
D67
100
AcDbEntity
  8
labels
 62
    51
420
 16187201
100
AcDbCircle
 10
188.2966815996949
 20
62.84644398752702
 30
0.0
 40
10.39150793485364
100
AcDbArc
 50
339.8206621937266
 51
271.5861312887161
  0
CIRCLE
  5
802
330
D67
100
AcDbEntity
  8
labels
 62
    51
420
 16187201
100
AcDbCircle
 10
198.2968177671267
 20
51.99735835182928
 30
0.0
 40
4.888528370397836
  0
CIRCLE
  5
803
330
D67
100
AcDbEntity
  8
labels
 62
    51
420
 16187201
100
AcDbCircle
 10
190.8849521371481
 20
52.9679598033741
 30
0.0
 40
1.270183347388949
  0
ARC
  5
806
330
D67
100
AcDbEntity
  8
labels
 62
    51
420
 16187201
100
AcDbCircle
 10
198.2968177671267
 20
51.99735835182928
 30
0.0
 40
7.268614288127999
100
AcDbArc
 50
190.8622079758042
 51
214.6844023445386
  0
ARC
  5
807
330
D67
100
AcDbEntity
  8
labels
 62
    51
420
 16187201
100
AcDbCircle
 10
190.8849521371481
 20
52.9679598033741
 30
0.0
 40
2.356279761168785
100
AcDbArc
 50
192.476337420639
 51
276.6650528513555
  0
HATCH
  5
809
330
D67
100
AcDbEntity
  8
labels
 62
    51
420
 16187201
100
AcDbHatch
 10
0.0
 20
0.0
 30
0.0
210
0.0
220
0.0
230
1.0
  2
SOLID
 70
     1
 71
     0
 91
        5
 92
        0
 93
        5
 72
     2
 10
188.2966815996949
 20
62.84644398752702
 40
10.39150793485364
 50
339.8206621937266
 51
631.586131288716
 73
     1
 72
     2
 10
190.8849521371481
 20
52.9679598033741
 40
2.356279761168785
 50
192.476337420639
 51
276.6650528513555
 73
     1
 72
     2
 10
198.2968177671267
 20
51.99735835182928
 40
7.268614288127999
 50
190.8622079758042
 51
214.6844023445386
 73
     1
 72
     2
 10
190.7588971027522
 20
45.51062168122942
 40
2.821588010527869
 50
56.41210244154063
 51
385.0149965456997
 73
     1
 72
     2
 10
198.2968177671267
 20
51.99735835182928
 40
7.268614288127999
 50
226.7426966427012
 51
451.9433230717316
 73
     1
 97
        0
 92
        0
 93
        1
 72
     2
 10
198.2968177671267
 20
51.99735835182928
 40
4.888528370397836
 50
0.0
 51
360.0
 73
     1
 97
        0
 92
        0
 93
        1
 72
     2
 10
190.8849521371481
 20
52.9679598033741
 40
1.270183347388949
 50
0.0
 51
360.0
 73
     1
 97
        0
 92
        0
 93
        1
 72
     2
 10
190.6985184983458
 20
45.52668200819714
 40
1.526035105353688
 50
0.0
 51
360.0
 73
     1
 97
        0
 92
        0
 93
        1
 72
     2
 10
188.2966815996949
 20
62.84644398752702
 40
7.151552029338297
 50
0.0
 51
360.0
 73
     1
 97
        0
 75
     0
 76
     1
 98
        0
  0
LINE
  5
80A
330
D67
100
AcDbEntity
  8
labels
 62
    51
420
 16187201
100
AcDbLine
 10
182.7232828667712
 20
47.73550777826266
 30
0.0
 11
182.7232828667712
 21
54.07600136905155
 31
0.0
  0
LINE
  5
80B
330
D67
100
AcDbEntity
  8
labels
 62
    51
420
 16187201
100
AcDbLine
 10
183.9068691003492
 20
47.73550777826266
 30
0.0
 11
183.9068691003492
 21
53.42768698988053
 31
0.0
  0
ARC
  5
80C
330
D67
100
AcDbEntity
  8
labels
 62
    51
420
 16187201
100
AcDbCircle
 10
183.3150759835602
 20
47.73550777826266
 30
0.0
 40
0.5917931167889922
100
AcDbArc
 50
180.0
 51
0.0
  0
ARC
  5
80E
330
D67
100
AcDbEntity
  8
labels
 62
    51
420
 16187201
100
AcDbCircle
 10
188.2966815996949
 20
62.84644398752702
 30
0.0
 40
10.39150793485364
100
AcDbArc
 50
237.5650539197826
 51
245.0111236837115
  0
HATCH
  5
80F
330
D67
100
AcDbEntity
  8
labels
 62
    51
420
 16187201
100
AcDbHatch
 10
0.0
 20
0.0
 30
0.0
210
0.0
220
0.0
230
1.0
  2
SOLID
 70
     1
 71
     0
 91
        1
 92
        0
 93
        4
 72
     1
 10
182.7232828667712
 20
47.73550777826266
 11
182.7232828667712
 21
54.07600136905155
 72
     2
 10
188.2966815996949
 20
62.84644398752702
 40
10.39150793485364
 50
237.5650539197826
 51
245.0111236837115
 73
     1
 72
     1
 10
183.9068691003492
 20
53.42768698988054
 11
183.9068691003492
 21
47.73550777826266
 72
     2
 10
183.3150759835602
 20
47.73550777826266
 40
0.5917931167889922
 50
0.0
 51
180.0
 73
     0
 97
        0
 75
     0
 76
     1
 98
        0
  0
LINE
  5
810
330
D67
100
AcDbEntity
  8
labels
 62
    51
420
 16187201
100
AcDbLine
 10
188.6639674012738
 20
47.40076147685782
 30
0.0
 11
184.3294180778241
 21
53.24205658862646
 31
0.0
  0
LINE
  5
811
330
D67
100
AcDbEntity
  8
labels
 62
    51
420
 16187201
100
AcDbLine
 10
190.2173036650007
 20
48.2797434642753
 30
0.0
 11
187.0180253695429
 21
52.53390427098678
 31
0.0
  0
ARC
  5
814
330
D67
100
AcDbEntity
  8
labels
 62
    51
420
 16187201
100
AcDbCircle
 10
188.2966815996949
 20
62.84644398752702
 30
0.0
 40
10.39150793485364
100
AcDbArc
 50
247.5560544297648
 51
262.9319449211443
  0
ARC
  5
816
330
D67
100
AcDbEntity
  8
labels
 62
    51
420
 16187201
100
AcDbCircle
 10
190.7588971027522
 20
45.51062168122942
 30
0.0
 40
2.821588010527876
100
AcDbArc
 50
101.0663910986905
 51
137.9418018202478
  0
HATCH
  5
817
330
D67
100
AcDbEntity
  8
labels
 62
    51
420
 16187201
100
AcDbHatch
 10
0.0
 20
0.0
 30
0.0
210
0.0
220
0.0
230
1.0
  2
SOLID
 70
     1
 71
     0
 91
        1
 92
        0
 93
        4
 72
     1
 10
188.6639674012738
 20
47.40076147685782
 11
184.3294180778241
 21
53.24205658862646
 72
     2
 10
188.2966815996949
 20
62.84644398752702
 40
10.39150793485364
 50
247.5560544297648
 51
262.9319449211443
 73
     1
 72
     1
 10
187.0180253695429
 20
52.53390427098678
 11
190.2173036650007
 21
48.2797434642753
 72
     2
 10
190.7588971027522
 20
45.51062168122942
 40
2.821588010527876
 50
101.0663910986905
 51
137.9418018202478
 73
     1
 97
        0
 75
     0
 76
     1
 98
        0
  0
LINE
  5
818
330
D67
100
AcDbEntity
  8
labels
 62
    51
420
 16187201
100
AcDbLine
 10
201.6591405510025
 20
37.40785088478192
 30
0.0
 11
194.6392630153968
 21
45.71603310092269
 31
0.0
  0
LINE
  5
81A
330
D67
100
AcDbEntity
  8
labels
 62
    51
420
 16187201
100
AcDbLine
 10
203.7880451085599
 20
39.20663777826299
 30
0.0
 11
199.0859226719654
 21
44.77170494755241
 31
0.0
  0
ARC
  5
81C
330
D67
100
AcDbEntity
  8
labels
 62
    51
420
 16187201
100
AcDbCircle
 10
202.78210380856
 20
38.23799527826283
 30
0.0
 40
1.396490670162917
100
AcDbArc
 50
216.4734600278381
 51
43.91784299095113
  0
ARC
  5
81F
330
D67
100
AcDbEntity
  8
labels
 62
    51
420
 16187201
100
AcDbCircle
 10
198.2968177671267
 20
51.99735835182928
 30
0.0
 40
7.268614288127999
100
AcDbArc
 50
239.788171989459
 51
276.2325039346521
  0
HATCH
  5
820
330
D67
100
AcDbEntity
  8
labels
 62
    51
420
 16187201
100
AcDbHatch
 10
0.0
 20
0.0
 30
0.0
210
0.0
220
0.0
230
1.0
  2
SOLID
 70
     1
 71
     0
 91
        1
 92
        0
 93
        4
 72
     1
 10
201.6591405510025
 20
37.40785088478192
 11
194.6392630153968
 21
45.71603310092269
 72
     2
 10
198.2968177671267
 20
51.99735835182928
 40
7.268614288127999
 50
239.788171989459
 51
276.2325039346521
 73
     1
 72
     1
 10
199.0859226719654
 20
44.7717049475524
 11
203.7880451085599
 21
39.20663777826299
 72
     2
 10
202.78210380856
 20
38.23799527826283
 40
1.396490670162917
 50
316.0821570090489
 51
503.5265399721619
 73
     0
 97
        0
 75
     0
 76
     1
 98
        0
  0
LWPOLYLINE
  5
BA3
330
D67
100
AcDbEntity
  8
labels
 62
    51
420
 16187201
100
AcDbPolyline
 90
       11
 70
     0
 43
0.0
 10
195.7612391099785
 20
52.55056302837053
 10
197.7034483124785
 20
52.66020980337053
 10
198.0880314974785
 20
54.56711585337054
 10
198.7924869449785
 20
52.75384827837053
 10
200.7249054749785
 20
52.97735495337052
 10
199.2180741524785
 20
51.74704685337053
 10
200.0277914174785
 20
49.97827460337053
 10
198.3920630399785
 20
51.03117155337053
 10
196.9600771349785
 20
49.71450305337053
 10
197.4559728149785
 20
51.59553657837052
 10
195.7612391099785
 20
52.55056302837053
  0
HATCH
  5
BA5
330
D67
100
AcDbEntity
  8
labels
 62
    51
420
 16187201
100
AcDbHatch
 10
0.0
 20
0.0
 30
0.0
210
0.0
220
0.0
230
1.0
  2
SOLID
 70
     1
 71
     0
 91
        2
 92
        0
 93
        1
 72
     2
 10
198.2968177671267
 20
51.99735835182928
 40
3.032164574434552
 50
0.0
 51
360.0
 73
     1
 97
        0
 92
        0
 93
       10
 72
     1
 10
195.7612391099785
 20
52.55056302837053
 11
197.7034483124785
 21
52.66020980337053
 72
     1
 10
197.7034483124785
 20
52.66020980337053
 11
198.0880314974785
 21
54.56711585337054
 72
     1
 10
198.0880314974785
 20
54.56711585337054
 11
198.7924869449785
 21
52.75384827837053
 72
     1
 10
198.7924869449785
 20
52.75384827837053
 11
200.7249054749785
 21
52.97735495337052
 72
     1
 10
200.7249054749785
 20
52.97735495337052
 11
199.2180741524785
 21
51.74704685337053
 72
     1
 10
199.2180741524785
 20
51.74704685337053
 11
200.0277914174785
 21
49.97827460337053
 72
     1
 10
200.0277914174785
 20
49.97827460337053
 11
198.3920630399785
 21
51.03117155337053
 72
     1
 10
198.3920630399785
 20
51.03117155337053
 11
196.9600771349785
 21
49.71450305337053
 72
     1
 10
196.9600771349785
 20
49.71450305337053
 11
197.4559728149785
 21
51.59553657837052
 72
     1
 10
197.4559728149785
 20
51.59553657837052
 11
195.7612391099785
 21
52.55056302837053
 97
        0
 75
     0
 76
     1
 98
        0
  0
LINE
  5
BA7
330
D67
100
AcDbEntity
  8
labels
 62
    51
420
 16187201
100
AcDbLine
 10
263.5000000000002
 20
15.99999999999989
 30
0.0
 11
263.5000000000002
 21
-4.000000000000114
 31
0.0
  0
LINE
  5
BA8
330
D67
100
AcDbEntity
  8
labels
 62
    51
420
 16187201
100
AcDbLine
 10
110.0
 20
170.0
 30
0.0
 11
110.0
 21
170.0
 31
0.0
  0
LINE
  5
BA9
330
D67
100
AcDbEntity
  8
labels
 62
    51
420
 16187201
100
AcDbLine
 10
253.5000000000002
 20
5.999999999999886
 30
0.0
 11
273.5000000000002
 21
5.999999999999886
 31
0.0
  0
LINE
  5
BAA
330
D67
100
AcDbEntity
  8
labels
 62
    51
420
 16187201
100
AcDbLine
 10
263.5000000000002
 20
171.9999999999999
 30
0.0
 11
263.5000000000002
 21
151.9999999999999
 31
0.0
  0
LINE
  5
BAB
330
D67
100
AcDbEntity
  8
labels
 62
    51
420
 16187201
100
AcDbLine
 10
253.5000000000002
 20
161.9999999999999
 30
0.0
 11
273.5000000000002
 21
161.9999999999999
 31
0.0
  0
LINE
  5
BAC
330
D67
100
AcDbEntity
  8
labels
 62
    51
420
 16187201
100
AcDbLine
 10
11.50000000000017
 20
171.9999999999999
 30
0.0
 11
11.50000000000017
 21
151.9999999999999
 31
0.0
  0
LINE
  5
BAD
330
D67
100
AcDbEntity
  8
labels
 62
    51
420
 16187201
100
AcDbLine
 10
1.500000000000171
 20
161.9999999999999
 30
0.0
 11
21.50000000000017
 21
161.9999999999999
 31
0.0
  0
LINE
  5
BAE
330
D67
100
AcDbEntity
  8
labels
 62
    51
420
 16187201
100
AcDbLine
 10
11.50000000000017
 20
15.99999999999997
 30
0.0
 11
11.50000000000017
 21
-4.000000000000028
 31
0.0
  0
LINE
  5
BAF
330
D67
100
AcDbEntity
  8
labels
 62
    51
420
 16187201
100
AcDbLine
 10
1.500000000000171
 20
5.999999999999972
 30
0.0
 11
21.50000000000017
 21
5.999999999999972
 31
0.0
  0
MTEXT
  5
BB0
330
D67
100
AcDbEntity
  8
remarks
100
AcDbMText
 10
30.0
 20
140.0
 30
0.0
 40
3.0
 41
0.0
 46
0.0
 71
     7
 72
     1
  1
Eckbohrungen: Durchgangslöcher.
  7
textstyle40
 73
     1
 44
1.0
  0
ENDSEC
  0
SECTION
  2
OBJECTS
  0
DICTIONARY
  5
D55
330
0
100
AcDbDictionary
281
     1
  3
ACAD_DETAILVIEWSTYLE
350
E84
  3
ACAD_GROUP
350
D56
  3
ACAD_LAYOUT
350
D62
  3
ACAD_MATERIAL
350
D8B
  3
ACAD_MLEADERSTYLE
350
DB3
  3
ACAD_MLINESTYLE
350
D5F
  3
ACAD_PLOTSETTINGS
350
D61
  3
ACAD_PLOTSTYLENAME
350
D57
  3
ACAD_SCALELIST
350
D8F
  3
ACAD_SECTIONVIEWSTYLE
350
E85
  3
ACAD_TABLESTYLE
350
DB1
  3
ACAD_VISUALSTYLE
350
D72
  3
ACDB_RECOMPOSE_DATA
350
E81
  3
AcDbVariableDictionary
350
E4D
  3
QCAD_OBJECTS
350
DB7
  0
SUN
  5
DB5
330
D71
100
AcDbSun
 90
        1
290
     0
 63
     7
421
 16777215
 40
1.0
291
     1
 91
  2455826
 92
 54000000
292
     0
 70
     2
 71
   256
280
     1
  0
DICTIONARY
  5
E84
102
{ACAD_REACTORS
330
D55
102
}
330
D55
100
AcDbDictionary
281
     1
  0
DICTIONARY
  5
D56
102
{ACAD_REACTORS
330
D55
102
}
330
D55
100
AcDbDictionary
281
     1
  0
DICTIONARY
  5
D62
102
{ACAD_REACTORS
330
D55
102
}
330
D55
100
AcDbDictionary
281
     1
  3
Layout1
350
D66
  3
Layout2
350
D6E
  3
Model
350
D6A
  0
DICTIONARY
  5
D8B
102
{ACAD_REACTORS
330
D55
102
}
330
D55
100
AcDbDictionary
281
     1
  3
ByBlock
350
D8D
  3
ByLayer
350
D8C
  3
Global
350
D8E
  0
DICTIONARY
  5
DB3
102
{ACAD_REACTORS
330
D55
102
}
330
D55
100
AcDbDictionary
281
     1
  3
Standard
350
DB4
  0
DICTIONARY
  5
D5F
102
{ACAD_REACTORS
330
D55
102
}
330
D55
100
AcDbDictionary
281
     1
  3
Standard
350
D60
  0
DICTIONARY
  5
D61
102
{ACAD_REACTORS
330
D55
102
}
330
D55
100
AcDbDictionary
281
     1
  0
ACDBDICTIONARYWDFLT
  5
D57
102
{ACAD_REACTORS
330
D55
102
}
330
D55
100
AcDbDictionary
281
     1
  3
Normal
350
D58
100
AcDbDictionaryWithDefault
340
D58
  0
DICTIONARY
  5
D8F
102
{ACAD_REACTORS
330
D55
102
}
330
D55
100
AcDbDictionary
281
     1
  3
A0
350
D90
  3
A1
350
D91
  3
A2
350
D92
  3
A3
350
D93
  3
A4
350
D94
  3
A5
350
D95
  3
A6
350
D96
  3
A7
350
D97
  3
A8
350
D98
  3
A9
350
D99
  3
B0
350
D9A
  3
B1
350
D9B
  3
B2
350
D9C
  3
B3
350
D9D
  3
B4
350
D9E
  3
B5
350
D9F
  3
B6
350
DA0
  3
B7
350
DA1
  3
B8
350
DA2
  3
B9
350
DA3
  3
C0
350
DA4
  3
C1
350
DA5
  3
C2
350
DA6
  3
C3
350
DA7
  3
C4
350
DA8
  3
C5
350
DA9
  3
C6
350
DAA
  3
C7
350
DAB
  3
C8
350
DAC
  3
C9
350
DAD
  3
D0
350
DAE
  3
D1
350
DAF
  3
D2
350
DB0
  0
DICTIONARY
  5
E85
102
{ACAD_REACTORS
330
D55
102
}
330
D55
100
AcDbDictionary
281
     1
  0
DICTIONARY
  5
DB1
102
{ACAD_REACTORS
330
D55
102
}
330
D55
100
AcDbDictionary
281
     1
  3
Standard
350
DB2
  0
DICTIONARY
  5
D72
102
{ACAD_REACTORS
330
D55
102
}
330
D55
100
AcDbDictionary
281
     1
  3
2dWireframe
350
D77
  3
Basic
350
D7A
  3
Brighten
350
D7E
  3
ColorChange
350
D82
  3
Conceptual
350
D7C
  3
Dim
350
D7D
  3
EdgeColorOff
350
D85
  3
Facepattern
350
D81
  3
Flat
350
D73
  3
FlatWithEdges
350
D74
  3
Gouraud
350
D75
  3
GouraudWithEdges
350
D76
  3
Hidden
350
D79
  3
JitterOff
350
D83
  3
Linepattern
350
D80
  3
OverhangOff
350
D84
  3
Realistic
350
D7B
  3
Shaded
350
D8A
  3
Shaded with edges
350
D89
  3
Shades of Gray
350
D86
  3
Sketchy
350
D87
  3
Thicken
350
D7F
  3
Wireframe
350
D78
  3
X-Ray
350
D88
  0
XRECORD
  5
E81
102
{ACAD_REACTORS
330
D55
102
}
330
D55
100
AcDbXrecord
280
     1
 90
        1
330
DB2
  0
DICTIONARY
  5
E4D
102
{ACAD_REACTORS
330
D55
102
}
330
D55
100
AcDbDictionary
281
     1
  3
CANNOSCALE
350
E4E
  3
CMLEADERSTYLE
350
E83
  3
CTABLESTYLE
350
E82
  0
DICTIONARY
  5
DB7
102
{ACAD_REACTORS
330
D55
102
}
330
D55
100
AcDbDictionary
281
     1
  3
ColorSettings/BackgroundColor
350
DB9
  3
ColorSettings/ColorMode
350
DBA
  3
Grid/DisplayGrid
350
DBB
  3
Grid/DisplayGrid00
350
DBC
  3
Grid/DisplayGrid01
350
DBD
  3
Grid/DisplayGrid02
350
DBE
  3
Grid/DisplayGrid03
350
DBF
  3
Grid/GridSpacingX
350
DC0
  3
Grid/GridSpacingX00
350
DC1
  3
Grid/GridSpacingX01
350
DC2
  3
Grid/GridSpacingX02
350
DC3
  3
Grid/GridSpacingX03
350
DC4
  3
Grid/GridSpacingY
350
DC5
  3
Grid/GridSpacingY00
350
DC6
  3
Grid/GridSpacingY01
350
DC7
  3
Grid/GridSpacingY02
350
DC8
  3
Grid/GridSpacingY03
350
DC9
  3
Grid/IsometricGrid00
350
DCA
  3
Grid/IsometricGrid01
350
DCB
  3
Grid/IsometricGrid02
350
DCC
  3
Grid/IsometricGrid03
350
DCD
  3
Grid/IsometricProjection00
350
DCE
  3
Grid/IsometricProjection01
350
DCF
  3
Grid/IsometricProjection02
350
DD0
  3
Grid/IsometricProjection03
350
DD1
  3
Grid/MetaGridSpacingX
350
DD2
  3
Grid/MetaGridSpacingX00
350
DD3
  3
Grid/MetaGridSpacingX01
350
DD4
  3
Grid/MetaGridSpacingX02
350
DD5
  3
Grid/MetaGridSpacingX03
350
DD6
  3
Grid/MetaGridSpacingY
350
DD7
  3
Grid/MetaGridSpacingY00
350
DD8
  3
Grid/MetaGridSpacingY01
350
DD9
  3
Grid/MetaGridSpacingY02
350
DDA
  3
Grid/MetaGridSpacingY03
350
DDB
  3
MultiPageSettings/Columns
350
DDC
  3
MultiPageSettings/GlueMarginsBottom
350
DDD
  3
MultiPageSettings/GlueMarginsLeft
350
DDE
  3
MultiPageSettings/GlueMarginsRight
350
DDF
  3
MultiPageSettings/GlueMarginsTop
350
DE0
  3
MultiPageSettings/PrintCropMarks
350
DE1
  3
MultiPageSettings/Rows
350
DE2
  3
PageSettings/OffsetX
350
DE3
  3
PageSettings/OffsetY
350
DE4
  3
PageSettings/PageOrientation
350
DE5
  3
PageSettings/PaperHeight
350
DE6
  3
PageSettings/PaperWidth
350
DE7
  3
PageSettings/Scale
350
DE8
  3
PageSettings/ShowPaperBorders
350
DE9
  3
QCADVersion
350
DEA
  3
UnitSettings/PaperUnit
350
DEB
  0
LAYOUT
  5
D66
102
{ACAD_REACTORS
330
D62
102
}
330
D62
100
AcDbPlotSettings
  1

  2
none_device
  4

  6

 40
0.0
 41
0.0
 42
0.0
 43
0.0
 44
0.0
 45
0.0
 46
0.0
 47
0.0
 48
0.0
 49
0.0
140
0.0
141
0.0
142
1.0
143
1.0
 70
   688
 72
     0
 73
     0
 74
     5
  7

 75
    16
 76
     0
 77
     2
 78
   300
147
1.0
148
0.0
149
0.0
100
AcDbLayout
  1
Layout1
 70
     1
 71
     1
 10
0.0
 20
0.0
 11
297.0
 21
210.0
 12
12.89069767441859
 22
8.048514211886328
 32
0.0
 14
1.000000000000000E+20
 24
1.000000000000000E+20
 34
1.000000000000000E+20
 15
-1.000000000000000E+20
 25
-1.000000000000000E+20
 35
-1.000000000000000E+20
146
0.0
 13
0.0
 23
0.0
 33
0.0
 16
1.0
 26
0.0
 36
0.0
 17
0.0
 27
1.0
 37
0.0
 76
     0
330
D63
  0
LAYOUT
  5
D6E
102
{ACAD_REACTORS
330
D62
102
}
330
D62
100
AcDbPlotSettings
  1

  2
none_device
  4

  6

 40
0.0
 41
0.0
 42
0.0
 43
0.0
 44
0.0
 45
0.0
 46
0.0
 47
0.0
 48
0.0
 49
0.0
140
0.0
141
0.0
142
1.0
143
1.0
 70
   688
 72
     0
 73
     0
 74
     5
  7

 75
    16
 76
     0
 77
     2
 78
   300
147
1.0
148
0.0
149
0.0
100
AcDbLayout
  1
Layout2
 70
     1
 71
     2
 10
0.0
 20
0.0
 11
0.0
 21
0.0
 12
0.0
 22
0.0
 32
0.0
 14
0.0
 24
0.0
 34
0.0
 15
0.0
 25
0.0
 35
0.0
146
0.0
 13
0.0
 23
0.0
 33
0.0
 16
1.0
 26
0.0
 36
0.0
 17
0.0
 27
1.0
 37
0.0
 76
     0
330
D6B
  0
LAYOUT
  5
D6A
102
{ACAD_REACTORS
330
D62
102
}
330
D62
100
AcDbPlotSettings
  1

  2
none_device
  4
Letter_(8.50_x_11.00_Inches)
  6

 40
6.35
 41
6.35
 42
6.35000508
 43
6.35000508
 44
215.9
 45
279.4
 46
0.0
 47
0.0
 48
0.0
 49
0.0
140
0.0
141
0.0
142
1.0
143
1.0
 70
  1712
 72
     0
 73
     0
 74
     0
  7

 75
     0
 76
     0
 77
     2
 78
   300
147
1.0
148
0.0
149
0.0
100
AcDbLayout
  1
Model
 70
     1
 71
     0
 10
0.0
 20
0.0
 11
12.0
 21
9.0
 12
0.0
 22
0.0
 32
0.0
 14
1.000000000000000E+20
 24
1.000000000000000E+20
 34
1.000000000000000E+20
 15
-1.000000000000000E+20
 25
-1.000000000000000E+20
 35
-1.000000000000000E+20
146
0.0
 13
0.0
 23
0.0
 33
0.0
 16
1.0
 26
0.0
 36
0.0
 17
0.0
 27
1.0
 37
0.0
 76
     0
330
D67
331
D71
  0
MATERIAL
  5
D8D
102
{ACAD_REACTORS
330
D8B
102
}
330
D8B
100
AcDbMaterial
  1
ByBlock
 72
     1
 94
      127
  0
MATERIAL
  5
D8C
102
{ACAD_REACTORS
330
D8B
102
}
330
D8B
100
AcDbMaterial
  1
ByLayer
 72
     1
 94
      127
  0
MATERIAL
  5
D8E
102
{ACAD_REACTORS
330
D8B
102
}
330
D8B
100
AcDbMaterial
  1
Global
 72
     1
 94
      127
  0
MLEADERSTYLE
  5
DB4
102
{ACAD_REACTORS
330
DB3
102
}
330
DB3
100
AcDbMLeaderStyle
179
     2
170
     2
171
     1
172
     0
 90
        2
 40
0.0
 41
0.0
173
     1
 91
-1056964608
340
D5C
 92
       -2
290
     1
 42
0.09
291
     1
 43
0.36
  3
Standard
341
0
 44
0.18
300

342
D5A
174
     1
178
     6
175
     1
176
     0
 93
-1056964608
 45
0.18
292
     0
297
     0
 46
0.18
343
0
 94
-1056964608
 47
1.0
 49
1.0
140
1.0
293
     1
141
0.0
294
     1
177
     0
142
1.0
295
     0
296
     0
143
0.125
271
     0
272
     9
273
     9
  0
MLINESTYLE
  5
D60
102
{ACAD_REACTORS
330
D5F
102
}
330
D5F
100
AcDbMlineStyle
  2
Standard
 70
     0
  3

 62
   256
 51
90.0
 52
90.0
 71
     2
 49
0.5
 62
   256
  6
BYLAYER
 49
-0.5
 62
   256
  6
BYLAYER
  0
ACDBPLACEHOLDER
  5
D58
102
{ACAD_REACTORS
330
D57
102
}
330
D57
  0
SCALE
  5
D90
102
{ACAD_REACTORS
330
D8F
102
}
330
D8F
100
AcDbScale
 70
     0
300
1:1
140
1.0
141
1.0
290
     1
  0
SCALE
  5
D91
102
{ACAD_REACTORS
330
D8F
102
}
330
D8F
100
AcDbScale
 70
     0
300
1:2
140
1.0
141
2.0
290
     0
  0
SCALE
  5
D92
102
{ACAD_REACTORS
330
D8F
102
}
330
D8F
100
AcDbScale
 70
     0
300
1:4
140
1.0
141
4.0
290
     0
  0
SCALE
  5
D93
102
{ACAD_REACTORS
330
D8F
102
}
330
D8F
100
AcDbScale
 70
     0
300
1:5
140
1.0
141
5.0
290
     0
  0
SCALE
  5
D94
102
{ACAD_REACTORS
330
D8F
102
}
330
D8F
100
AcDbScale
 70
     0
300
1:8
140
1.0
141
8.0
290
     0
  0
SCALE
  5
D95
102
{ACAD_REACTORS
330
D8F
102
}
330
D8F
100
AcDbScale
 70
     0
300
1:10
140
1.0
141
10.0
290
     0
  0
SCALE
  5
D96
102
{ACAD_REACTORS
330
D8F
102
}
330
D8F
100
AcDbScale
 70
     0
300
1:16
140
1.0
141
16.0
290
     0
  0
SCALE
  5
D97
102
{ACAD_REACTORS
330
D8F
102
}
330
D8F
100
AcDbScale
 70
     0
300
1:20
140
1.0
141
20.0
290
     0
  0
SCALE
  5
D98
102
{ACAD_REACTORS
330
D8F
102
}
330
D8F
100
AcDbScale
 70
     0
300
1:30
140
1.0
141
30.0
290
     0
  0
SCALE
  5
D99
102
{ACAD_REACTORS
330
D8F
102
}
330
D8F
100
AcDbScale
 70
     0
300
1:40
140
1.0
141
40.0
290
     0
  0
SCALE
  5
D9A
102
{ACAD_REACTORS
330
D8F
102
}
330
D8F
100
AcDbScale
 70
     0
300
1:50
140
1.0
141
50.0
290
     0
  0
SCALE
  5
D9B
102
{ACAD_REACTORS
330
D8F
102
}
330
D8F
100
AcDbScale
 70
     0
300
1:100
140
1.0
141
100.0
290
     0
  0
SCALE
  5
D9C
102
{ACAD_REACTORS
330
D8F
102
}
330
D8F
100
AcDbScale
 70
     0
300
2:1
140
2.0
141
1.0
290
     0
  0
SCALE
  5
D9D
102
{ACAD_REACTORS
330
D8F
102
}
330
D8F
100
AcDbScale
 70
     0
300
4:1
140
4.0
141
1.0
290
     0
  0
SCALE
  5
D9E
102
{ACAD_REACTORS
330
D8F
102
}
330
D8F
100
AcDbScale
 70
     0
300
8:1
140
8.0
141
1.0
290
     0
  0
SCALE
  5
D9F
102
{ACAD_REACTORS
330
D8F
102
}
330
D8F
100
AcDbScale
 70
     0
300
10:1
140
10.0
141
1.0
290
     0
  0
SCALE
  5
DA0
102
{ACAD_REACTORS
330
D8F
102
}
330
D8F
100
AcDbScale
 70
     0
300
100:1
140
100.0
141
1.0
290
     0
  0
SCALE
  5
DA1
102
{ACAD_REACTORS
330
D8F
102
}
330
D8F
100
AcDbScale
 70
     0
300
1/128" = 1'-0"
140
0.0078125
141
12.0
290
     0
  0
SCALE
  5
DA2
102
{ACAD_REACTORS
330
D8F
102
}
330
D8F
100
AcDbScale
 70
     0
300
1/64" = 1'-0"
140
0.015625
141
12.0
290
     0
  0
SCALE
  5
DA3
102
{ACAD_REACTORS
330
D8F
102
}
330
D8F
100
AcDbScale
 70
     0
300
1/32" = 1'-0"
140
0.03125
141
12.0
290
     0
  0
SCALE
  5
DA4
102
{ACAD_REACTORS
330
D8F
102
}
330
D8F
100
AcDbScale
 70
     0
300
1/16" = 1'-0"
140
0.0625
141
12.0
290
     0
  0
SCALE
  5
DA5
102
{ACAD_REACTORS
330
D8F
102
}
330
D8F
100
AcDbScale
 70
     0
300
3/32" = 1'-0"
140
0.09375
141
12.0
290
     0
  0
SCALE
  5
DA6
102
{ACAD_REACTORS
330
D8F
102
}
330
D8F
100
AcDbScale
 70
     0
300
1/8" = 1'-0"
140
0.125
141
12.0
290
     0
  0
SCALE
  5
DA7
102
{ACAD_REACTORS
330
D8F
102
}
330
D8F
100
AcDbScale
 70
     0
300
3/16" = 1'-0"
140
0.1875
141
12.0
290
     0
  0
SCALE
  5
DA8
102
{ACAD_REACTORS
330
D8F
102
}
330
D8F
100
AcDbScale
 70
     0
300
1/4" = 1'-0"
140
0.25
141
12.0
290
     0
  0
SCALE
  5
DA9
102
{ACAD_REACTORS
330
D8F
102
}
330
D8F
100
AcDbScale
 70
     0
300
3/8" = 1'-0"
140
0.375
141
12.0
290
     0
  0
SCALE
  5
DAA
102
{ACAD_REACTORS
330
D8F
102
}
330
D8F
100
AcDbScale
 70
     0
300
1/2" = 1'-0"
140
0.5
141
12.0
290
     0
  0
SCALE
  5
DAB
102
{ACAD_REACTORS
330
D8F
102
}
330
D8F
100
AcDbScale
 70
     0
300
3/4" = 1'-0"
140
0.75
141
12.0
290
     0
  0
SCALE
  5
DAC
102
{ACAD_REACTORS
330
D8F
102
}
330
D8F
100
AcDbScale
 70
     0
300
1" = 1'-0"
140
1.0
141
12.0
290
     0
  0
SCALE
  5
DAD
102
{ACAD_REACTORS
330
D8F
102
}
330
D8F
100
AcDbScale
 70
     0
300
1-1/2" = 1'-0"
140
1.5
141
12.0
290
     0
  0
SCALE
  5
DAE
102
{ACAD_REACTORS
330
D8F
102
}
330
D8F
100
AcDbScale
 70
     0
300
3" = 1'-0"
140
3.0
141
12.0
290
     0
  0
SCALE
  5
DAF
102
{ACAD_REACTORS
330
D8F
102
}
330
D8F
100
AcDbScale
 70
     0
300
6" = 1'-0"
140
6.0
141
12.0
290
     0
  0
SCALE
  5
DB0
102
{ACAD_REACTORS
330
D8F
102
}
330
D8F
100
AcDbScale
 70
     0
300
1'-0" = 1'-0"
140
12.0
141
12.0
290
     0
  0
TABLESTYLE
  5
DB2
102
{ACAD_REACTORS
330
DB1
102
}
102
{ACAD_XDICTIONARY
360
E7F
102
}
330
DB1
100
AcDbTableStyle
  3
Standard
 70
     0
 71
     0
 40
0.06
 41
0.06
280
     0
281
     0
  7
Standard
140
0.18
170
     2
 62
     0
 63
   257
283
     0
 90
        4
 91
        0
  1

274
    -2
284
     1
 64
     0
275
    -2
285
     1
 65
     0
276
    -2
286
     1
 66
     0
277
    -2
287
     1
 67
     0
278
    -2
288
     1
 68
     0
279
    -2
289
     1
 69
     0
  7
Standard
140
0.25
170
     5
 62
     0
 63
   257
283
     0
 90
        4
 91
        0
  1

274
    -2
284
     1
 64
     0
275
    -2
285
     1
 65
     0
276
    -2
286
     1
 66
     0
277
    -2
287
     1
 67
     0
278
    -2
288
     1
 68
     0
279
    -2
289
     1
 69
     0
  7
Standard
140
0.18
170
     5
 62
     0
 63
   257
283
     0
 90
        4
 91
        0
  1

274
    -2
284
     1
 64
     0
275
    -2
285
     1
 65
     0
276
    -2
286
     1
 66
     0
277
    -2
287
     1
 67
     0
278
    -2
288
     1
 68
     0
279
    -2
289
     1
 69
     0
  0
VISUALSTYLE
  5
D77
102
{ACAD_REACTORS
330
D72
102
}
102
{ACAD_XDICTIONARY
360
E57
102
}
330
D72
100
AcDbVisualStyle
  2
2dWireframe
 70
     4
177
     2
291
     0
 71
     0
176
     1
 72
     2
176
     1
 73
     0
176
     1
 90
        0
176
     1
 40
0.6
176
     1
 41
30.0
176
     1
 62
     5
 63
     7
421
 16777215
176
     1
 74
     1
176
     1
 91
        4
176
     1
 64
     7
176
     1
 65
   257
176
     1
 75
     1
176
     1
175
     1
176
     1
 42
1.0
176
     1
 92
        0
176
     1
 66
   257
176
     1
 43
1.0
176
     1
 76
     1
176
     1
 77
     6
176
     1
 78
     2
176
     1
 67
     7
176
     1
 79
     5
176
     1
170
     0
176
     1
171
     0
176
     1
290
     0
176
     1
 93
        1
176
     1
 44
0.0
176
     1
173
     0
176
     1
  0
VISUALSTYLE
  5
D7A
102
{ACAD_REACTORS
330
D72
102
}
102
{ACAD_XDICTIONARY
360
E5D
102
}
330
D72
100
AcDbVisualStyle
  2
Basic
 70
     7
177
     2
291
     1
 71
     1
176
     1
 72
     0
176
     1
 73
     1
176
     1
 90
        0
176
     1
 40
0.6
176
     1
 41
30.0
176
     1
 62
     5
 63
     7
421
 16777215
176
     1
 74
     0
176
     1
 91
        4
176
     1
 64
     7
176
     1
 65
   257
176
     1
 75
     1
176
     1
175
     1
176
     1
 42
1.0
176
     1
 92
        8
176
     1
 66
     7
176
     1
 43
1.0
176
     1
 76
     1
176
     1
 77
     6
176
     1
 78
     2
176
     1
 67
     7
176
     1
 79
     5
176
     1
170
     0
176
     1
171
     0
176
     1
290
     0
176
     1
 93
        1
176
     1
 44
0.0
176
     1
173
     0
176
     1
  0
VISUALSTYLE
  5
D7E
102
{ACAD_REACTORS
330
D72
102
}
102
{ACAD_XDICTIONARY
360
E65
102
}
330
D72
100
AcDbVisualStyle
  2
Brighten
 70
    12
177
     2
291
     1
 71
     2
176
     1
 72
     2
176
     1
 73
     0
176
     1
 90
        0
176
     1
 40
0.6
176
     1
 41
30.0
176
     1
 62
     5
 63
     7
421
 16777215
176
     1
 74
     1
176
     1
 91
        4
176
     1
 64
     7
176
     1
 65
   257
176
     1
 75
     1
176
     1
175
     1
176
     1
 42
1.0
176
     1
 92
        8
176
     1
 66
     7
176
     1
 43
1.0
176
     1
 76
     1
176
     1
 77
     6
176
     1
 78
     2
176
     1
 67
     7
176
     1
 79
     5
176
     1
170
     0
176
     1
171
     0
176
     1
290
     0
176
     1
 93
        1
176
     1
 44
50.0
176
     1
173
     0
176
     1
  0
VISUALSTYLE
  5
D82
102
{ACAD_REACTORS
330
D72
102
}
102
{ACAD_XDICTIONARY
360
E6D
102
}
330
D72
100
AcDbVisualStyle
  2
ColorChange
 70
    16
177
     2
291
     1
 71
     2
176
     1
 72
     2
176
     1
 73
     3
176
     1
 90
        0
176
     1
 40
0.6
176
     1
 41
30.0
176
     1
 62
     5
 63
     8
421
  8421504
176
     1
 74
     1
176
     1
 91
        4
176
     1
 64
     7
176
     1
 65
   257
176
     1
 75
     1
176
     1
175
     1
176
     1
 42
1.0
176
     1
 92
        8
176
     1
 66
     8
424
  8421504
176
     1
 43
1.0
176
     1
 76
     1
176
     1
 77
     6
176
     1
 78
     2
176
     1
 67
     7
176
     1
 79
     5
176
     1
170
     0
176
     1
171
     0
176
     1
290
     0
176
     1
 93
        1
176
     1
 44
0.0
176
     1
173
     0
176
     1
  0
VISUALSTYLE
  5
D7C
102
{ACAD_REACTORS
330
D72
102
}
102
{ACAD_XDICTIONARY
360
E61
102
}
330
D72
100
AcDbVisualStyle
  2
Conceptual
 70
     9
177
     2
291
     0
 71
     3
176
     1
 72
     2
176
     1
 73
     0
176
     1
 90
        0
176
     1
 40
0.6
176
     1
 41
30.0
176
     1
 62
     5
 63
     7
421
 16777215
176
     1
 74
     2
176
     1
 91
        2
176
     1
 64
     7
176
     1
 65
   257
176
     1
 75
     1
176
     1
175
     1
176
     1
 42
179.0
176
     1
 92
        8
176
     1
 66
     7
176
     1
 43
1.0
176
     1
 76
     1
176
     1
 77
     6
176
     1
 78
     2
176
     1
 67
     7
176
     1
 79
     3
176
     1
170
     0
176
     1
171
     0
176
     1
290
     0
176
     1
 93
        1
176
     1
 44
0.0
176
     1
173
     0
176
     1
  0
VISUALSTYLE
  5
D7D
102
{ACAD_REACTORS
330
D72
102
}
102
{ACAD_XDICTIONARY
360
E63
102
}
330
D72
100
AcDbVisualStyle
  2
Dim
 70
    11
177
     2
291
     1
 71
     2
176
     1
 72
     2
176
     1
 73
     0
176
     1
 90
        0
176
     1
 40
0.6
176
     1
 41
30.0
176
     1
 62
     5
 63
     7
421
 16777215
176
     1
 74
     1
176
     1
 91
        4
176
     1
 64
     7
176
     1
 65
   257
176
     1
 75
     1
176
     1
175
     1
176
     1
 42
1.0
176
     1
 92
        8
176
     1
 66
     7
176
     1
 43
1.0
176
     1
 76
     1
176
     1
 77
     6
176
     1
 78
     2
176
     1
 67
     7
176
     1
 79
     5
176
     1
170
     0
176
     1
171
     0
176
     1
290
     0
176
     1
 93
        1
176
     1
 44
-50.0
176
     1
173
     0
176
     1
  0
VISUALSTYLE
  5
D85
102
{ACAD_REACTORS
330
D72
102
}
102
{ACAD_XDICTIONARY
360
E73
102
}
330
D72
100
AcDbVisualStyle
  2
EdgeColorOff
 70
    22
177
     2
291
     1
 71
     2
176
     0
 72
     2
176
     0
 73
     0
176
     0
 90
        0
176
     0
 40
0.6
176
     0
 41
30.0
176
     0
 62
     5
 63
     7
421
 16777215
176
     0
 74
     1
176
     0
 91
        4
176
     0
 64
     7
176
     0
 65
   257
176
     0
 75
     1
176
     0
175
     1
176
     0
 42
1.0
176
     0
 92
        8
176
     2
 66
     7
176
     0
 43
1.0
176
     0
 76
     1
176
     0
 77
     6
176
     0
 78
     2
176
     0
 67
     7
176
     0
 79
     5
176
     0
170
     0
176
     0
171
     0
176
     0
290
     0
176
     0
 93
        1
176
     0
 44
0.0
176
     0
173
     0
176
     0
  0
VISUALSTYLE
  5
D81
102
{ACAD_REACTORS
330
D72
102
}
102
{ACAD_XDICTIONARY
360
E6B
102
}
330
D72
100
AcDbVisualStyle
  2
Facepattern
 70
    15
177
     2
291
     1
 71
     2
176
     1
 72
     2
176
     1
 73
     0
176
     1
 90
        0
176
     1
 40
0.6
176
     1
 41
30.0
176
     1
 62
     5
 63
     7
421
 16777215
176
     1
 74
     1
176
     1
 91
        4
176
     1
 64
     7
176
     1
 65
   257
176
     1
 75
     1
176
     1
175
     1
176
     1
 42
1.0
176
     1
 92
        8
176
     1
 66
     7
176
     1
 43
1.0
176
     1
 76
     1
176
     1
 77
     6
176
     1
 78
     2
176
     1
 67
     7
176
     1
 79
     5
176
     1
170
     0
176
     1
171
     0
176
     1
290
     0
176
     1
 93
        1
176
     1
 44
0.0
176
     1
173
     0
176
     1
  0
VISUALSTYLE
  5
D73
102
{ACAD_REACTORS
330
D72
102
}
102
{ACAD_XDICTIONARY
360
E4F
102
}
330
D72
100
AcDbVisualStyle
  2
Flat
 70
     0
177
     2
291
     1
 71
     2
176
     1
 72
     1
176
     1
 73
     1
176
     1
 90
        2
176
     1
 40
0.6
176
     1
 41
30.0
176
     1
 62
     5
 63
     7
421
 16777215
176
     1
 74
     0
176
     1
 91
        0
176
     1
 64
     7
176
     1
 65
   257
176
     1
 75
     1
176
     1
175
     1
176
     1
 42
1.0
176
     1
 92
        8
176
     1
 66
     7
176
     1
 43
1.0
176
     1
 76
     1
176
     1
 77
     6
176
     1
 78
     2
176
     1
 67
     7
176
     1
 79
     5
176
     1
170
     0
176
     1
171
     0
176
     1
290
     0
176
     1
 93
       13
176
     1
 44
0.0
176
     1
173
     0
176
     1
  0
VISUALSTYLE
  5
D74
102
{ACAD_REACTORS
330
D72
102
}
102
{ACAD_XDICTIONARY
360
E51
102
}
330
D72
100
AcDbVisualStyle
  2
FlatWithEdges
 70
     1
177
     2
291
     1
 71
     2
176
     1
 72
     1
176
     1
 73
     1
176
     1
 90
        2
176
     1
 40
0.6
176
     1
 41
30.0
176
     1
 62
     5
 63
     7
421
 16777215
176
     1
 74
     1
176
     1
 91
        0
176
     1
 64
     7
176
     1
 65
   257
176
     1
 75
     1
176
     1
175
     1
176
     1
 42
1.0
176
     1
 92
        0
176
     1
 66
   257
176
     1
 43
1.0
176
     1
 76
     1
176
     1
 77
     6
176
     1
 78
     2
176
     1
 67
     7
176
     1
 79
     5
176
     1
170
     0
176
     1
171
     0
176
     1
290
     0
176
     1
 93
       13
176
     1
 44
0.0
176
     1
173
     0
176
     1
  0
VISUALSTYLE
  5
D75
102
{ACAD_REACTORS
330
D72
102
}
102
{ACAD_XDICTIONARY
360
E53
102
}
330
D72
100
AcDbVisualStyle
  2
Gouraud
 70
     2
177
     2
291
     1
 71
     2
176
     1
 72
     2
176
     1
 73
     1
176
     1
 90
        2
176
     1
 40
0.6
176
     1
 41
30.0
176
     1
 62
     5
 63
     7
421
 16777215
176
     1
 74
     0
176
     1
 91
        0
176
     1
 64
     7
176
     1
 65
   257
176
     1
 75
     1
176
     1
175
     1
176
     1
 42
1.0
176
     1
 92
        0
176
     1
 66
     7
176
     1
 43
1.0
176
     1
 76
     1
176
     1
 77
     6
176
     1
 78
     2
176
     1
 67
     7
176
     1
 79
     5
176
     1
170
     0
176
     1
171
     0
176
     1
290
     0
176
     1
 93
       13
176
     1
 44
0.0
176
     1
173
     0
176
     1
  0
VISUALSTYLE
  5
D76
102
{ACAD_REACTORS
330
D72
102
}
102
{ACAD_XDICTIONARY
360
E55
102
}
330
D72
100
AcDbVisualStyle
  2
GouraudWithEdges
 70
     3
177
     2
291
     1
 71
     2
176
     1
 72
     2
176
     1
 73
     1
176
     1
 90
        2
176
     1
 40
0.6
176
     1
 41
30.0
176
     1
 62
     5
 63
     7
421
 16777215
176
     1
 74
     1
176
     1
 91
        0
176
     1
 64
     7
176
     1
 65
   257
176
     1
 75
     1
176
     1
175
     1
176
     1
 42
1.0
176
     1
 92
        0
176
     1
 66
   257
176
     1
 43
1.0
176
     1
 76
     1
176
     1
 77
     6
176
     1
 78
     2
176
     1
 67
     7
176
     1
 79
     5
176
     1
170
     0
176
     1
171
     0
176
     1
290
     0
176
     1
 93
       13
176
     1
 44
0.0
176
     1
173
     0
176
     1
  0
VISUALSTYLE
  5
D79
102
{ACAD_REACTORS
330
D72
102
}
102
{ACAD_XDICTIONARY
360
E5B
102
}
330
D72
100
AcDbVisualStyle
  2
Hidden
 70
     6
177
     2
291
     0
 71
     1
176
     1
 72
     2
176
     1
 73
     2
176
     1
 90
        0
176
     1
 40
0.6
176
     1
 41
30.0
176
     1
 62
     5
 63
     7
421
 16777215
176
     1
 74
     2
176
     1
 91
        2
176
     1
 64
     7
176
     1
 65
   257
176
     1
 75
     2
176
     1
175
     1
176
     1
 42
40.0
176
     1
 92
        0
176
     1
 66
   257
176
     1
 43
1.0
176
     1
 76
     1
176
     1
 77
     6
176
     1
 78
     2
176
     1
 67
     7
176
     1
 79
     3
176
     1
170
     0
176
     1
171
     0
176
     1
290
     0
176
     1
 93
        1
176
     1
 44
0.0
176
     1
173
     0
176
     1
  0
VISUALSTYLE
  5
D83
102
{ACAD_REACTORS
330
D72
102
}
102
{ACAD_XDICTIONARY
360
E6F
102
}
330
D72
100
AcDbVisualStyle
  2
JitterOff
 70
    20
177
     2
291
     1
 71
     2
176
     0
 72
     2
176
     0
 73
     0
176
     0
 90
        0
176
     0
 40
0.6
176
     0
 41
30.0
176
     0
 62
     5
 63
     7
421
 16777215
176
     0
 74
     1
176
     0
 91
        4
176
     0
 64
     7
176
     0
 65
   257
176
     0
 75
     1
176
     0
175
     1
176
     0
 42
1.0
176
     0
 92
       10
176
     2
 66
     7
176
     0
 43
1.0
176
     0
 76
     1
176
     0
 77
     6
176
     0
 78
     2
176
     0
 67
     7
176
     0
 79
     5
176
     0
170
     0
176
     0
171
     0
176
     0
290
     0
176
     0
 93
        1
176
     0
 44
0.0
176
     0
173
     0
176
     0
  0
VISUALSTYLE
  5
D80
102
{ACAD_REACTORS
330
D72
102
}
102
{ACAD_XDICTIONARY
360
E69
102
}
330
D72
100
AcDbVisualStyle
  2
Linepattern
 70
    14
177
     2
291
     1
 71
     2
176
     1
 72
     2
176
     1
 73
     0
176
     1
 90
        0
176
     1
 40
0.6
176
     1
 41
30.0
176
     1
 62
     5
 63
     7
421
 16777215
176
     1
 74
     1
176
     1
 91
        4
176
     1
 64
     7
176
     1
 65
   257
176
     1
 75
     7
176
     1
175
     7
176
     1
 42
1.0
176
     1
 92
        8
176
     1
 66
     7
176
     1
 43
1.0
176
     1
 76
     1
176
     1
 77
     6
176
     1
 78
     2
176
     1
 67
     7
176
     1
 79
     5
176
     1
170
     0
176
     1
171
     0
176
     1
290
     0
176
     1
 93
        1
176
     1
 44
0.0
176
     1
173
     0
176
     1
  0
VISUALSTYLE
  5
D84
102
{ACAD_REACTORS
330
D72
102
}
102
{ACAD_XDICTIONARY
360
E71
102
}
330
D72
100
AcDbVisualStyle
  2
OverhangOff
 70
    21
177
     2
291
     1
 71
     2
176
     0
 72
     2
176
     0
 73
     0
176
     0
 90
        0
176
     0
 40
0.6
176
     0
 41
30.0
176
     0
 62
     5
 63
     7
421
 16777215
176
     0
 74
     1
176
     0
 91
        4
176
     0
 64
     7
176
     0
 65
   257
176
     0
 75
     1
176
     0
175
     1
176
     0
 42
1.0
176
     0
 92
        9
176
     2
 66
     7
176
     0
 43
1.0
176
     0
 76
     1
176
     0
 77
     6
176
     0
 78
     2
176
     0
 67
     7
176
     0
 79
     5
176
     0
170
     0
176
     0
171
     0
176
     0
290
     0
176
     0
 93
        1
176
     0
 44
0.0
176
     0
173
     0
176
     0
  0
VISUALSTYLE
  5
D7B
102
{ACAD_REACTORS
330
D72
102
}
102
{ACAD_XDICTIONARY
360
E5F
102
}
330
D72
100
AcDbVisualStyle
  2
Realistic
 70
     8
177
     2
291
     0
 71
     2
176
     1
 72
     3
176
     1
 73
     0
176
     1
 90
        2
176
     1
 40
0.6
176
     1
 41
30.0
176
     1
 62
     5
 63
     7
421
 16777215
176
     1
 74
     0
176
     1
 91
        0
176
     1
 64
     7
176
     1
 65
   257
176
     1
 75
     1
176
     1
175
     1
176
     1
 42
1.0
176
     1
 92
        8
176
     1
 66
   257
176
     1
 43
1.0
176
     1
 76
     1
176
     1
 77
     6
176
     1
 78
     2
176
     1
 67
     7
176
     1
 79
     3
176
     1
170
     0
176
     1
171
     0
176
     1
290
     0
176
     1
 93
       13
176
     1
 44
0.0
176
     1
173
     0
176
     1
  0
VISUALSTYLE
  5
D8A
102
{ACAD_REACTORS
330
D72
102
}
102
{ACAD_XDICTIONARY
360
E7D
102
}
330
D72
100
AcDbVisualStyle
  2
Shaded
 70
    27
177
     2
291
     0
 71
     2
176
     1
 72
     2
176
     1
 73
     1
176
     1
 90
        2
176
     1
 40
0.6
176
     1
 41
30.0
176
     1
 62
     5
 63
     7
421
 16777215
176
     1
 74
     0
176
     1
 91
        4
176
     1
 64
     7
176
     1
 65
   257
176
     1
 75
     1
176
     1
175
     1
176
     1
 42
1.0
176
     1
 92
        8
176
     1
 66
   257
176
     1
 43
1.0
176
     1
 76
     1
176
     1
 77
     6
176
     1
 78
     2
176
     1
 67
     8
425
  7895160
176
     1
 79
     3
176
     1
170
     0
176
     1
171
     0
176
     1
290
     0
176
     1
 93
        5
176
     1
 44
0.0
176
     1
173
     0
176
     1
  0
VISUALSTYLE
  5
D89
102
{ACAD_REACTORS
330
D72
102
}
102
{ACAD_XDICTIONARY
360
E7B
102
}
330
D72
100
AcDbVisualStyle
  2
Shaded with edges
 70
    26
177
     2
291
     0
 71
     2
176
     1
 72
     2
176
     1
 73
     1
176
     1
 90
        2
176
     1
 40
0.6
176
     1
 41
30.0
176
     1
 62
     5
 63
     7
421
 16777215
176
     1
 74
     1
176
     1
 91
       10
176
     1
 64
     7
176
     1
 65
   257
176
     1
 75
     2
176
     1
175
     1
176
     1
 42
1.0
176
     1
 92
        8
176
     1
 66
   257
176
     1
 43
1.0
176
     1
 76
     1
176
     1
 77
     6
176
     1
 78
     2
176
     1
 67
     7
176
     1
 79
     3
176
     1
170
     0
176
     1
171
     0
176
     1
290
     0
176
     1
 93
        5
176
     1
 44
0.0
176
     1
173
     0
176
     1
  0
VISUALSTYLE
  5
D86
102
{ACAD_REACTORS
330
D72
102
}
102
{ACAD_XDICTIONARY
360
E75
102
}
330
D72
100
AcDbVisualStyle
  2
Shades of Gray
 70
    23
177
     2
291
     0
 71
     2
176
     1
 72
     2
176
     1
 73
     3
176
     1
 90
        0
176
     1
 40
0.6
176
     1
 41
30.0
176
     1
 62
     5
 63
     7
421
 16777215
176
     1
 74
     2
176
     1
 91
        2
176
     1
 64
     7
176
     1
 65
     7
176
     1
 75
     1
176
     1
175
     1
176
     1
 42
40.0
176
     1
 92
        8
176
     1
 66
     7
176
     1
 43
1.0
176
     1
 76
     1
176
     1
 77
     6
176
     1
 78
     2
176
     1
 67
     7
176
     1
 79
     3
176
     1
170
     0
176
     1
171
     0
176
     1
290
     0
176
     1
 93
        1
176
     1
 44
0.0
176
     1
173
     0
176
     1
  0
VISUALSTYLE
  5
D87
102
{ACAD_REACTORS
330
D72
102
}
102
{ACAD_XDICTIONARY
360
E77
102
}
330
D72
100
AcDbVisualStyle
  2
Sketchy
 70
    24
177
     2
291
     0
 71
     1
176
     1
 72
     2
176
     1
 73
     2
176
     1
 90
        0
176
     1
 40
0.6
176
     1
 41
30.0
176
     1
 62
     5
 63
     7
421
 16777215
176
     1
 74
     2
176
     1
 91
        2
176
     1
 64
     7
176
     1
 65
     7
176
     1
 75
     1
176
     1
175
     1
176
     1
 42
40.0
176
     1
 92
       11
176
     1
 66
     7
176
     1
 43
1.0
176
     1
 76
     1
176
     1
 77
     6
176
     1
 78
     2
176
     1
 67
     7
176
     1
 79
     6
176
     1
170
     0
176
     1
171
     0
176
     1
290
     0
176
     1
 93
        1
176
     1
 44
0.0
176
     1
173
     0
176
     1
  0
VISUALSTYLE
  5
D7F
102
{ACAD_REACTORS
330
D72
102
}
102
{ACAD_XDICTIONARY
360
E67
102
}
330
D72
100
AcDbVisualStyle
  2
Thicken
 70
    13
177
     2
291
     1
 71
     2
176
     1
 72
     2
176
     1
 73
     0
176
     1
 90
        0
176
     1
 40
0.6
176
     1
 41
30.0
176
     1
 62
     5
 63
     7
421
 16777215
176
     1
 74
     1
176
     1
 91
        4
176
     1
 64
     7
176
     1
 65
   257
176
     1
 75
     1
176
     1
175
     1
176
     1
 42
1.0
176
     1
 92
       12
176
     1
 66
     7
176
     1
 43
1.0
176
     1
 76
     1
176
     1
 77
     6
176
     1
 78
     2
176
     1
 67
     7
176
     1
 79
     5
176
     1
170
     0
176
     1
171
     0
176
     1
290
     0
176
     1
 93
        1
176
     1
 44
0.0
176
     1
173
     0
176
     1
  0
VISUALSTYLE
  5
D78
102
{ACAD_REACTORS
330
D72
102
}
102
{ACAD_XDICTIONARY
360
E59
102
}
330
D72
100
AcDbVisualStyle
  2
Wireframe
 70
     5
177
     2
291
     0
 71
     0
176
     1
 72
     2
176
     1
 73
     0
176
     1
 90
        0
176
     1
 40
0.6
176
     1
 41
30.0
176
     1
 62
     5
 63
     7
421
 16777215
176
     1
 74
     1
176
     1
 91
        4
176
     1
 64
     7
176
     1
 65
   257
176
     1
 75
     1
176
     1
175
     1
176
     1
 42
1.0
176
     1
 92
        0
176
     1
 66
   257
176
     1
 43
1.0
176
     1
 76
     1
176
     1
 77
     6
176
     1
 78
     2
176
     1
 67
     7
176
     1
 79
     3
176
     1
170
     0
176
     1
171
     0
176
     1
290
     0
176
     1
 93
        1
176
     1
 44
0.0
176
     1
173
     0
176
     1
  0
VISUALSTYLE
  5
D88
102
{ACAD_REACTORS
330
D72
102
}
102
{ACAD_XDICTIONARY
360
E79
102
}
330
D72
100
AcDbVisualStyle
  2
X-Ray
 70
    25
177
     2
291
     0
 71
     2
176
     1
 72
     2
176
     1
 73
     1
176
     1
 90
        1
176
     1
 40
0.5
176
     1
 41
30.0
176
     1
 62
     5
 63
     7
421
 16777215
176
     1
 74
     1
176
     1
 91
        0
176
     1
 64
     7
176
     1
 65
   257
176
     1
 75
     1
176
     1
175
     1
176
     1
 42
1.0
176
     1
 92
        8
176
     1
 66
     7
176
     1
 43
1.0
176
     1
 76
     1
176
     1
 77
     6
176
     1
 78
     2
176
     1
 67
     7
176
     1
 79
     3
176
     1
170
     0
176
     1
171
     0
176
     1
290
     0
176
     1
 93
       13
176
     1
 44
0.0
176
     1
173
     0
176
     1
  0
DICTIONARYVAR
  5
E4E
102
{ACAD_REACTORS
330
E4D
102
}
330
E4D
100
DictionaryVariables
280
     0
  1
1:1
  0
DICTIONARYVAR
  5
E83
102
{ACAD_REACTORS
330
E4D
102
}
330
E4D
100
DictionaryVariables
280
     0
  1
Standard
  0
DICTIONARYVAR
  5
E82
102
{ACAD_REACTORS
330
E4D
102
}
330
E4D
100
DictionaryVariables
280
     0
  1
Standard
  0
XRECORD
  5
DB9
102
{ACAD_REACTORS
330
DB7
102
}
330
DB7
100
AcDbXrecord
280
     1
1000
#ffffff
  0
XRECORD
  5
DBA
102
{ACAD_REACTORS
330
DB7
102
}
330
DB7
100
AcDbXrecord
280
     1
1000
FullColor
  0
XRECORD
  5
DBB
102
{ACAD_REACTORS
330
DB7
102
}
330
DB7
100
AcDbXrecord
280
     1
290
     1
  0
XRECORD
  5
DBC
102
{ACAD_REACTORS
330
DB7
102
}
330
DB7
100
AcDbXrecord
280
     1
290
     1
  0
XRECORD
  5
DBD
102
{ACAD_REACTORS
330
DB7
102
}
330
DB7
100
AcDbXrecord
280
     1
290
     1
  0
XRECORD
  5
DBE
102
{ACAD_REACTORS
330
DB7
102
}
330
DB7
100
AcDbXrecord
280
     1
290
     1
  0
XRECORD
  5
DBF
102
{ACAD_REACTORS
330
DB7
102
}
330
DB7
100
AcDbXrecord
280
     1
290
     1
  0
XRECORD
  5
DC0
102
{ACAD_REACTORS
330
DB7
102
}
330
DB7
100
AcDbXrecord
280
     1
1000
auto
  0
XRECORD
  5
DC1
102
{ACAD_REACTORS
330
DB7
102
}
330
DB7
100
AcDbXrecord
280
     1
1000
auto
  0
XRECORD
  5
DC2
102
{ACAD_REACTORS
330
DB7
102
}
330
DB7
100
AcDbXrecord
280
     1
1000
auto
  0
XRECORD
  5
DC3
102
{ACAD_REACTORS
330
DB7
102
}
330
DB7
100
AcDbXrecord
280
     1
1000
auto
  0
XRECORD
  5
DC4
102
{ACAD_REACTORS
330
DB7
102
}
330
DB7
100
AcDbXrecord
280
     1
1000
auto
  0
XRECORD
  5
DC5
102
{ACAD_REACTORS
330
DB7
102
}
330
DB7
100
AcDbXrecord
280
     1
1000
auto
  0
XRECORD
  5
DC6
102
{ACAD_REACTORS
330
DB7
102
}
330
DB7
100
AcDbXrecord
280
     1
1000
auto
  0
XRECORD
  5
DC7
102
{ACAD_REACTORS
330
DB7
102
}
330
DB7
100
AcDbXrecord
280
     1
1000
auto
  0
XRECORD
  5
DC8
102
{ACAD_REACTORS
330
DB7
102
}
330
DB7
100
AcDbXrecord
280
     1
1000
auto
  0
XRECORD
  5
DC9
102
{ACAD_REACTORS
330
DB7
102
}
330
DB7
100
AcDbXrecord
280
     1
1000
auto
  0
XRECORD
  5
DCA
102
{ACAD_REACTORS
330
DB7
102
}
330
DB7
100
AcDbXrecord
280
     1
290
     0
  0
XRECORD
  5
DCB
102
{ACAD_REACTORS
330
DB7
102
}
330
DB7
100
AcDbXrecord
280
     1
290
     0
  0
XRECORD
  5
DCC
102
{ACAD_REACTORS
330
DB7
102
}
330
DB7
100
AcDbXrecord
280
     1
290
     0
  0
XRECORD
  5
DCD
102
{ACAD_REACTORS
330
DB7
102
}
330
DB7
100
AcDbXrecord
280
     1
290
     0
  0
XRECORD
  5
DCE
102
{ACAD_REACTORS
330
DB7
102
}
330
DB7
100
AcDbXrecord
280
     1
 90
        0
  0
XRECORD
  5
DCF
102
{ACAD_REACTORS
330
DB7
102
}
330
DB7
100
AcDbXrecord
280
     1
 90
        0
  0
XRECORD
  5
DD0
102
{ACAD_REACTORS
330
DB7
102
}
330
DB7
100
AcDbXrecord
280
     1
 90
        0
  0
XRECORD
  5
DD1
102
{ACAD_REACTORS
330
DB7
102
}
330
DB7
100
AcDbXrecord
280
     1
 90
        0
  0
XRECORD
  5
DD2
102
{ACAD_REACTORS
330
DB7
102
}
330
DB7
100
AcDbXrecord
280
     1
1000
auto
  0
XRECORD
  5
DD3
102
{ACAD_REACTORS
330
DB7
102
}
330
DB7
100
AcDbXrecord
280
     1
1000
auto
  0
XRECORD
  5
DD4
102
{ACAD_REACTORS
330
DB7
102
}
330
DB7
100
AcDbXrecord
280
     1
1000
auto
  0
XRECORD
  5
DD5
102
{ACAD_REACTORS
330
DB7
102
}
330
DB7
100
AcDbXrecord
280
     1
1000
auto
  0
XRECORD
  5
DD6
102
{ACAD_REACTORS
330
DB7
102
}
330
DB7
100
AcDbXrecord
280
     1
1000
auto
  0
XRECORD
  5
DD7
102
{ACAD_REACTORS
330
DB7
102
}
330
DB7
100
AcDbXrecord
280
     1
1000
auto
  0
XRECORD
  5
DD8
102
{ACAD_REACTORS
330
DB7
102
}
330
DB7
100
AcDbXrecord
280
     1
1000
auto
  0
XRECORD
  5
DD9
102
{ACAD_REACTORS
330
DB7
102
}
330
DB7
100
AcDbXrecord
280
     1
1000
auto
  0
XRECORD
  5
DDA
102
{ACAD_REACTORS
330
DB7
102
}
330
DB7
100
AcDbXrecord
280
     1
1000
auto
  0
XRECORD
  5
DDB
102
{ACAD_REACTORS
330
DB7
102
}
330
DB7
100
AcDbXrecord
280
     1
1000
auto
  0
XRECORD
  5
DDC
102
{ACAD_REACTORS
330
DB7
102
}
330
DB7
100
AcDbXrecord
280
     1
 90
        1
  0
XRECORD
  5
DDD
102
{ACAD_REACTORS
330
DB7
102
}
330
DB7
100
AcDbXrecord
280
     1
 40
10.0
  0
XRECORD
  5
DDE
102
{ACAD_REACTORS
330
DB7
102
}
330
DB7
100
AcDbXrecord
280
     1
 40
10.0
  0
XRECORD
  5
DDF
102
{ACAD_REACTORS
330
DB7
102
}
330
DB7
100
AcDbXrecord
280
     1
 40
10.0
  0
XRECORD
  5
DE0
102
{ACAD_REACTORS
330
DB7
102
}
330
DB7
100
AcDbXrecord
280
     1
 40
10.0
  0
XRECORD
  5
DE1
102
{ACAD_REACTORS
330
DB7
102
}
330
DB7
100
AcDbXrecord
280
     1
290
     0
  0
XRECORD
  5
DE2
102
{ACAD_REACTORS
330
DB7
102
}
330
DB7
100
AcDbXrecord
280
     1
 90
        1
  0
XRECORD
  5
DE3
102
{ACAD_REACTORS
330
DB7
102
}
330
DB7
100
AcDbXrecord
280
     1
 40
-12.89069767441859
  0
XRECORD
  5
DE4
102
{ACAD_REACTORS
330
DB7
102
}
330
DB7
100
AcDbXrecord
280
     1
 40
-8.048514211886328
  0
XRECORD
  5
DE5
102
{ACAD_REACTORS
330
DB7
102
}
330
DB7
100
AcDbXrecord
280
     1
1000
Landscape
  0
XRECORD
  5
DE6
102
{ACAD_REACTORS
330
DB7
102
}
330
DB7
100
AcDbXrecord
280
     1
 40
297.0
  0
XRECORD
  5
DE7
102
{ACAD_REACTORS
330
DB7
102
}
330
DB7
100
AcDbXrecord
280
     1
 40
210.0
  0
XRECORD
  5
DE8
102
{ACAD_REACTORS
330
DB7
102
}
330
DB7
100
AcDbXrecord
280
     1
1000
1
  0
XRECORD
  5
DE9
102
{ACAD_REACTORS
330
DB7
102
}
330
DB7
100
AcDbXrecord
280
     1
290
     1
  0
XRECORD
  5
DEA
102
{ACAD_REACTORS
330
DB7
102
}
330
DB7
100
AcDbXrecord
280
     1
1000
3.7.5
  0
XRECORD
  5
DEB
102
{ACAD_REACTORS
330
DB7
102
}
330
DB7
100
AcDbXrecord
280
     1
 90
        4
  0
DICTIONARY
  5
E7F
330
DB2
100
AcDbDictionary
280
     1
281
     1
  3
ACAD_ROUNDTRIP_2008_TABLESTYLE_CELLSTYLEMAP
360
E80
  0
DICTIONARY
  5
E57
330
D77
100
AcDbDictionary
280
     1
281
     1
  3
ACAD_XREC_ROUNDTRIP
360
E58
  0
DICTIONARY
  5
E5D
330
D7A
100
AcDbDictionary
280
     1
281
     1
  3
ACAD_XREC_ROUNDTRIP
360
E5E
  0
DICTIONARY
  5
E65
330
D7E
100
AcDbDictionary
280
     1
281
     1
  3
ACAD_XREC_ROUNDTRIP
360
E66
  0
DICTIONARY
  5
E6D
330
D82
100
AcDbDictionary
280
     1
281
     1
  3
ACAD_XREC_ROUNDTRIP
360
E6E
  0
DICTIONARY
  5
E61
330
D7C
100
AcDbDictionary
280
     1
281
     1
  3
ACAD_XREC_ROUNDTRIP
360
E62
  0
DICTIONARY
  5
E63
330
D7D
100
AcDbDictionary
280
     1
281
     1
  3
ACAD_XREC_ROUNDTRIP
360
E64
  0
DICTIONARY
  5
E73
330
D85
100
AcDbDictionary
280
     1
281
     1
  3
ACAD_XREC_ROUNDTRIP
360
E74
  0
DICTIONARY
  5
E6B
330
D81
100
AcDbDictionary
280
     1
281
     1
  3
ACAD_XREC_ROUNDTRIP
360
E6C
  0
DICTIONARY
  5
E4F
330
D73
100
AcDbDictionary
280
     1
281
     1
  3
ACAD_XREC_ROUNDTRIP
360
E50
  0
DICTIONARY
  5
E51
330
D74
100
AcDbDictionary
280
     1
281
     1
  3
ACAD_XREC_ROUNDTRIP
360
E52
  0
DICTIONARY
  5
E53
330
D75
100
AcDbDictionary
280
     1
281
     1
  3
ACAD_XREC_ROUNDTRIP
360
E54
  0
DICTIONARY
  5
E55
330
D76
100
AcDbDictionary
280
     1
281
     1
  3
ACAD_XREC_ROUNDTRIP
360
E56
  0
DICTIONARY
  5
E5B
330
D79
100
AcDbDictionary
280
     1
281
     1
  3
ACAD_XREC_ROUNDTRIP
360
E5C
  0
DICTIONARY
  5
E6F
330
D83
100
AcDbDictionary
280
     1
281
     1
  3
ACAD_XREC_ROUNDTRIP
360
E70
  0
DICTIONARY
  5
E69
330
D80
100
AcDbDictionary
280
     1
281
     1
  3
ACAD_XREC_ROUNDTRIP
360
E6A
  0
DICTIONARY
  5
E71
330
D84
100
AcDbDictionary
280
     1
281
     1
  3
ACAD_XREC_ROUNDTRIP
360
E72
  0
DICTIONARY
  5
E5F
330
D7B
100
AcDbDictionary
280
     1
281
     1
  3
ACAD_XREC_ROUNDTRIP
360
E60
  0
DICTIONARY
  5
E7D
330
D8A
100
AcDbDictionary
280
     1
281
     1
  3
ACAD_XREC_ROUNDTRIP
360
E7E
  0
DICTIONARY
  5
E7B
330
D89
100
AcDbDictionary
280
     1
281
     1
  3
ACAD_XREC_ROUNDTRIP
360
E7C
  0
DICTIONARY
  5
E75
330
D86
100
AcDbDictionary
280
     1
281
     1
  3
ACAD_XREC_ROUNDTRIP
360
E76
  0
DICTIONARY
  5
E77
330
D87
100
AcDbDictionary
280
     1
281
     1
  3
ACAD_XREC_ROUNDTRIP
360
E78
  0
DICTIONARY
  5
E67
330
D7F
100
AcDbDictionary
280
     1
281
     1
  3
ACAD_XREC_ROUNDTRIP
360
E68
  0
DICTIONARY
  5
E59
330
D78
100
AcDbDictionary
280
     1
281
     1
  3
ACAD_XREC_ROUNDTRIP
360
E5A
  0
DICTIONARY
  5
E79
330
D88
100
AcDbDictionary
280
     1
281
     1
  3
ACAD_XREC_ROUNDTRIP
360
E7A
  0
CELLSTYLEMAP
  5
E80
102
{ACAD_REACTORS
330
E7F
102
}
330
E7F
100
AcDbCellStyleMap
 90
        3
300
CELLSTYLE
  1
TABLEFORMAT_BEGIN
 90
        5
170
     1
 91
        0
 92
    32768
 62
   257
 93
        1
300
CONTENTFORMAT
  1
CONTENTFORMAT_BEGIN
 90
        0
 91
        0
 92
        4
 93
        0
300

 40
0.0
140
1.0
 94
        5
 62
     0
340
D5A
144
0.25
309
CONTENTFORMAT_END
171
     1
301
MARGIN
  1
CELLMARGIN_BEGIN
 40
0.06
 40
0.06
 40
0.06
 40
0.06
 40
0.06
 40
0.06
309
CELLMARGIN_END
 94
        6
 95
        1
302
GRIDFORMAT
  1
GRIDFORMAT_BEGIN
 90
        0
 91
        1
 62
     0
 92
       -2
340
D5C
 93
        0
 40
0.045
309
GRIDFORMAT_END
 95
        2
302
GRIDFORMAT
  1
GRIDFORMAT_BEGIN
 90
        0
 91
        1
 62
     0
 92
       -2
340
D5C
 93
        0
 40
0.045
309
GRIDFORMAT_END
 95
        4
302
GRIDFORMAT
  1
GRIDFORMAT_BEGIN
 90
        0
 91
        1
 62
     0
 92
       -2
340
D5C
 93
        0
 40
0.045
309
GRIDFORMAT_END
 95
        8
302
GRIDFORMAT
  1
GRIDFORMAT_BEGIN
 90
        0
 91
        1
 62
     0
 92
       -2
340
D5C
 93
        0
 40
0.045
309
GRIDFORMAT_END
 95
       16
302
GRIDFORMAT
  1
GRIDFORMAT_BEGIN
 90
        0
 91
        1
 62
     0
 92
       -2
340
D5C
 93
        0
 40
0.045
309
GRIDFORMAT_END
 95
       32
302
GRIDFORMAT
  1
GRIDFORMAT_BEGIN
 90
        0
 91
        1
 62
     0
 92
       -2
340
D5C
 93
        0
 40
0.045
309
GRIDFORMAT_END
309
TABLEFORMAT_END
  1
CELLSTYLE_BEGIN
 90
        1
 91
        1
300
_TITLE
309
CELLSTYLE_END
300
CELLSTYLE
  1
TABLEFORMAT_BEGIN
 90
        5
170
     1
 91
        0
 92
        0
 62
   257
 93
        1
300
CONTENTFORMAT
  1
CONTENTFORMAT_BEGIN
 90
        0
 91
        0
 92
        4
 93
        0
300

 40
0.0
140
1.0
 94
        5
 62
     0
340
D5A
144
0.18
309
CONTENTFORMAT_END
171
     1
301
MARGIN
  1
CELLMARGIN_BEGIN
 40
0.06
 40
0.06
 40
0.06
 40
0.06
 40
0.06
 40
0.06
309
CELLMARGIN_END
 94
        6
 95
        1
302
GRIDFORMAT
  1
GRIDFORMAT_BEGIN
 90
        0
 91
        1
 62
     0
 92
       -2
340
D5C
 93
        0
 40
0.045
309
GRIDFORMAT_END
 95
        2
302
GRIDFORMAT
  1
GRIDFORMAT_BEGIN
 90
        0
 91
        1
 62
     0
 92
       -2
340
D5C
 93
        0
 40
0.045
309
GRIDFORMAT_END
 95
        4
302
GRIDFORMAT
  1
GRIDFORMAT_BEGIN
 90
        0
 91
        1
 62
     0
 92
       -2
340
D5C
 93
        0
 40
0.045
309
GRIDFORMAT_END
 95
        8
302
GRIDFORMAT
  1
GRIDFORMAT_BEGIN
 90
        0
 91
        1
 62
     0
 92
       -2
340
D5C
 93
        0
 40
0.045
309
GRIDFORMAT_END
 95
       16
302
GRIDFORMAT
  1
GRIDFORMAT_BEGIN
 90
        0
 91
        1
 62
     0
 92
       -2
340
D5C
 93
        0
 40
0.045
309
GRIDFORMAT_END
 95
       32
302
GRIDFORMAT
  1
GRIDFORMAT_BEGIN
 90
        0
 91
        1
 62
     0
 92
       -2
340
D5C
 93
        0
 40
0.045
309
GRIDFORMAT_END
309
TABLEFORMAT_END
  1
CELLSTYLE_BEGIN
 90
        2
 91
        1
300
_HEADER
309
CELLSTYLE_END
300
CELLSTYLE
  1
TABLEFORMAT_BEGIN
 90
        5
170
     1
 91
        0
 92
        0
 62
   257
 93
        1
300
CONTENTFORMAT
  1
CONTENTFORMAT_BEGIN
 90
        0
 91
        0
 92
        4
 93
        0
300

 40
0.0
140
1.0
 94
        2
 62
     0
340
D5A
144
0.18
309
CONTENTFORMAT_END
171
     1
301
MARGIN
  1
CELLMARGIN_BEGIN
 40
0.06
 40
0.06
 40
0.06
 40
0.06
 40
0.06
 40
0.06
309
CELLMARGIN_END
 94
        6
 95
        1
302
GRIDFORMAT
  1
GRIDFORMAT_BEGIN
 90
        0
 91
        1
 62
     0
 92
       -2
340
D5C
 93
        0
 40
0.045
309
GRIDFORMAT_END
 95
        2
302
GRIDFORMAT
  1
GRIDFORMAT_BEGIN
 90
        0
 91
        1
 62
     0
 92
       -2
340
D5C
 93
        0
 40
0.045
309
GRIDFORMAT_END
 95
        4
302
GRIDFORMAT
  1
GRIDFORMAT_BEGIN
 90
        0
 91
        1
 62
     0
 92
       -2
340
D5C
 93
        0
 40
0.045
309
GRIDFORMAT_END
 95
        8
302
GRIDFORMAT
  1
GRIDFORMAT_BEGIN
 90
        0
 91
        1
 62
     0
 92
       -2
340
D5C
 93
        0
 40
0.045
309
GRIDFORMAT_END
 95
       16
302
GRIDFORMAT
  1
GRIDFORMAT_BEGIN
 90
        0
 91
        1
 62
     0
 92
       -2
340
D5C
 93
        0
 40
0.045
309
GRIDFORMAT_END
 95
       32
302
GRIDFORMAT
  1
GRIDFORMAT_BEGIN
 90
        0
 91
        1
 62
     0
 92
       -2
340
D5C
 93
        0
 40
0.045
309
GRIDFORMAT_END
309
TABLEFORMAT_END
  1
CELLSTYLE_BEGIN
 90
        3
 91
        2
300
_DATA
309
CELLSTYLE_END
  0
XRECORD
  5
E58
102
{ACAD_REACTORS
330
E57
102
}
330
E57
100
AcDbXrecord
280
     1
102
RTVSPost2010Prop28
280
     1
102
RTVSPost2010PropOp28
 70
     1
102
RTVSPost2010Prop29
280
     1
102
RTVSPost2010PropOp29
 70
     1
102
RTVSPost2010Prop30
280
     0
102
RTVSPost2010PropOp30
 70
     1
102
RTVSPost2010Prop31
280
     0
102
RTVSPost2010PropOp31
 70
     1
102
RTVSPost2010Prop32
280
     0
102
RTVSPost2010PropOp32
 70
     1
102
RTVSPost2010Prop33
280
     0
102
RTVSPost2010PropOp33
 70
     1
102
RTVSPost2010Prop34
280
     0
102
RTVSPost2010PropOp34
 70
     1
102
RTVSPost2010Prop35
280
     0
102
RTVSPost2010PropOp35
 70
     1
102
RTVSPost2010Prop36
280
     0
102
RTVSPost2010PropOp36
 70
     1
102
RTVSPost2010Prop37
 90
       50
102
RTVSPost2010PropOp37
 70
     1
102
RTVSPost2010Prop38
140
0.0
102
RTVSPost2010PropOp38
 70
     1
102
RTVSPost2010Prop39
140
1.0
102
RTVSPost2010PropOp39
 70
     1
102
RTVSPost2010Prop40
 90
        0
102
RTVSPost2010PropOp40
 70
     1
102
RTVSPost2010Prop41ColorIndex
 90
       18
102
RTVSPost2010Prop41ColorRGB
 90
        0
102
RTVSPost2010PropOp41
 70
     1
102
RTVSPost2010Prop42
 90
       50
102
RTVSPost2010PropOp42
 70
     1
102
RTVSPost2010Prop43
 90
        3
102
RTVSPost2010PropOp43
 70
     1
102
RTVSPost2010Prop44ColorIndex
 90
        5
102
RTVSPost2010Prop44ColorRGB
 90
      255
102
RTVSPost2010PropOp44
 70
     1
102
RTVSPost2010Prop45
280
     0
102
RTVSPost2010PropOp45
 70
     1
102
RTVSPost2010Prop46
 90
       50
102
RTVSPost2010PropOp46
 70
     1
102
RTVSPost2010Prop47
 90
       50
102
RTVSPost2010PropOp47
 70
     1
102
RTVSPost2010Prop48
 90
       50
102
RTVSPost2010PropOp48
 70
     1
102
RTVSPost2010Prop49
280
     0
102
RTVSPost2010PropOp49
 70
     1
102
RTVSPost2010Prop50
 90
       50
102
RTVSPost2010PropOp50
 70
     1
102
RTVSPost2010Prop51ColorIndex
 90
      256
102
RTVSPost2010Prop51ColorRGB
 90
-16777216
102
RTVSPost2010PropOp51
 70
     0
102
RTVSPost2010Prop52
140
1.0
102
RTVSPost2010PropOp52
 70
     0
102
RTVSPost2010Prop53
 90
        2
102
RTVSPost2010PropOp53
 70
     1
102
RTVSPost2010Prop54
  1
strokes_ogs.tif
102
RTVSPost2010PropOp54
 70
     1
102
RTVSPost2010Prop55
280
     0
102
RTVSPost2010PropOp55
 70
     1
102
RTVSPost2010Prop56
140
1.0
102
RTVSPost2010PropOp56
 70
     1
102
RTVSPost2010Prop57
140
1.0
102
RTVSPost2010PropOp57
 70
     1
  0
XRECORD
  5
E5E
102
{ACAD_REACTORS
330
E5D
102
}
330
E5D
100
AcDbXrecord
280
     1
102
RTVSPost2010Prop28
280
     0
102
RTVSPost2010PropOp28
 70
     1
102
RTVSPost2010Prop29
280
     1
102
RTVSPost2010PropOp29
 70
     1
102
RTVSPost2010Prop30
280
     1
102
RTVSPost2010PropOp30
 70
     1
102
RTVSPost2010Prop31
280
     0
102
RTVSPost2010PropOp31
 70
     1
102
RTVSPost2010Prop32
280
     0
102
RTVSPost2010PropOp32
 70
     1
102
RTVSPost2010Prop33
280
     0
102
RTVSPost2010PropOp33
 70
     1
102
RTVSPost2010Prop34
280
     0
102
RTVSPost2010PropOp34
 70
     1
102
RTVSPost2010Prop35
280
     0
102
RTVSPost2010PropOp35
 70
     1
102
RTVSPost2010Prop36
280
     0
102
RTVSPost2010PropOp36
 70
     1
102
RTVSPost2010Prop37
 90
       50
102
RTVSPost2010PropOp37
 70
     1
102
RTVSPost2010Prop38
140
0.0
102
RTVSPost2010PropOp38
 70
     1
102
RTVSPost2010Prop39
140
1.0
102
RTVSPost2010PropOp39
 70
     1
102
RTVSPost2010Prop40
 90
        0
102
RTVSPost2010PropOp40
 70
     1
102
RTVSPost2010Prop41ColorIndex
 90
       18
102
RTVSPost2010Prop41ColorRGB
 90
        0
102
RTVSPost2010PropOp41
 70
     1
102
RTVSPost2010Prop42
 90
       50
102
RTVSPost2010PropOp42
 70
     1
102
RTVSPost2010Prop43
 90
        3
102
RTVSPost2010PropOp43
 70
     1
102
RTVSPost2010Prop44ColorIndex
 90
        5
102
RTVSPost2010Prop44ColorRGB
 90
      255
102
RTVSPost2010PropOp44
 70
     1
102
RTVSPost2010Prop45
280
     0
102
RTVSPost2010PropOp45
 70
     1
102
RTVSPost2010Prop46
 90
       50
102
RTVSPost2010PropOp46
 70
     1
102
RTVSPost2010Prop47
 90
       50
102
RTVSPost2010PropOp47
 70
     1
102
RTVSPost2010Prop48
 90
       50
102
RTVSPost2010PropOp48
 70
     1
102
RTVSPost2010Prop49
280
     0
102
RTVSPost2010PropOp49
 70
     1
102
RTVSPost2010Prop50
 90
       50
102
RTVSPost2010PropOp50
 70
     1
102
RTVSPost2010Prop51ColorIndex
 90
      256
102
RTVSPost2010Prop51ColorRGB
 90
-16777216
102
RTVSPost2010PropOp51
 70
     0
102
RTVSPost2010Prop52
140
1.0
102
RTVSPost2010PropOp52
 70
     0
102
RTVSPost2010Prop53
 90
        2
102
RTVSPost2010PropOp53
 70
     1
102
RTVSPost2010Prop54
  1
strokes_ogs.tif
102
RTVSPost2010PropOp54
 70
     1
102
RTVSPost2010Prop55
280
     0
102
RTVSPost2010PropOp55
 70
     1
102
RTVSPost2010Prop56
140
1.0
102
RTVSPost2010PropOp56
 70
     1
102
RTVSPost2010Prop57
140
1.0
102
RTVSPost2010PropOp57
 70
     1
  0
XRECORD
  5
E66
102
{ACAD_REACTORS
330
E65
102
}
330
E65
100
AcDbXrecord
280
     1
102
RTVSPost2010Prop28
280
     0
102
RTVSPost2010PropOp28
 70
     1
102
RTVSPost2010Prop29
280
     1
102
RTVSPost2010PropOp29
 70
     1
102
RTVSPost2010Prop30
280
     1
102
RTVSPost2010PropOp30
 70
     1
102
RTVSPost2010Prop31
280
     0
102
RTVSPost2010PropOp31
 70
     1
102
RTVSPost2010Prop32
280
     0
102
RTVSPost2010PropOp32
 70
     1
102
RTVSPost2010Prop33
280
     0
102
RTVSPost2010PropOp33
 70
     1
102
RTVSPost2010Prop34
280
     0
102
RTVSPost2010PropOp34
 70
     1
102
RTVSPost2010Prop35
280
     0
102
RTVSPost2010PropOp35
 70
     1
102
RTVSPost2010Prop36
280
     0
102
RTVSPost2010PropOp36
 70
     1
102
RTVSPost2010Prop37
 90
       50
102
RTVSPost2010PropOp37
 70
     1
102
RTVSPost2010Prop38
140
0.0
102
RTVSPost2010PropOp38
 70
     1
102
RTVSPost2010Prop39
140
1.0
102
RTVSPost2010PropOp39
 70
     1
102
RTVSPost2010Prop40
 90
        0
102
RTVSPost2010PropOp40
 70
     1
102
RTVSPost2010Prop41ColorIndex
 90
       18
102
RTVSPost2010Prop41ColorRGB
 90
        0
102
RTVSPost2010PropOp41
 70
     1
102
RTVSPost2010Prop42
 90
       50
102
RTVSPost2010PropOp42
 70
     1
102
RTVSPost2010Prop43
 90
        3
102
RTVSPost2010PropOp43
 70
     1
102
RTVSPost2010Prop44ColorIndex
 90
        5
102
RTVSPost2010Prop44ColorRGB
 90
      255
102
RTVSPost2010PropOp44
 70
     1
102
RTVSPost2010Prop45
280
     0
102
RTVSPost2010PropOp45
 70
     1
102
RTVSPost2010Prop46
 90
       50
102
RTVSPost2010PropOp46
 70
     1
102
RTVSPost2010Prop47
 90
       50
102
RTVSPost2010PropOp47
 70
     1
102
RTVSPost2010Prop48
 90
       50
102
RTVSPost2010PropOp48
 70
     1
102
RTVSPost2010Prop49
280
     0
102
RTVSPost2010PropOp49
 70
     1
102
RTVSPost2010Prop50
 90
       50
102
RTVSPost2010PropOp50
 70
     1
102
RTVSPost2010Prop51ColorIndex
 90
      256
102
RTVSPost2010Prop51ColorRGB
 90
-16777216
102
RTVSPost2010PropOp51
 70
     0
102
RTVSPost2010Prop52
140
1.0
102
RTVSPost2010PropOp52
 70
     0
102
RTVSPost2010Prop53
 90
        2
102
RTVSPost2010PropOp53
 70
     1
102
RTVSPost2010Prop54
  1
strokes_ogs.tif
102
RTVSPost2010PropOp54
 70
     1
102
RTVSPost2010Prop55
280
     0
102
RTVSPost2010PropOp55
 70
     1
102
RTVSPost2010Prop56
140
1.0
102
RTVSPost2010PropOp56
 70
     1
102
RTVSPost2010Prop57
140
1.0
102
RTVSPost2010PropOp57
 70
     1
  0
XRECORD
  5
E6E
102
{ACAD_REACTORS
330
E6D
102
}
330
E6D
100
AcDbXrecord
280
     1
102
RTVSPost2010Prop28
280
     0
102
RTVSPost2010PropOp28
 70
     1
102
RTVSPost2010Prop29
280
     1
102
RTVSPost2010PropOp29
 70
     1
102
RTVSPost2010Prop30
280
     1
102
RTVSPost2010PropOp30
 70
     1
102
RTVSPost2010Prop31
280
     0
102
RTVSPost2010PropOp31
 70
     1
102
RTVSPost2010Prop32
280
     0
102
RTVSPost2010PropOp32
 70
     1
102
RTVSPost2010Prop33
280
     0
102
RTVSPost2010PropOp33
 70
     1
102
RTVSPost2010Prop34
280
     0
102
RTVSPost2010PropOp34
 70
     1
102
RTVSPost2010Prop35
280
     0
102
RTVSPost2010PropOp35
 70
     1
102
RTVSPost2010Prop36
280
     0
102
RTVSPost2010PropOp36
 70
     1
102
RTVSPost2010Prop37
 90
       50
102
RTVSPost2010PropOp37
 70
     1
102
RTVSPost2010Prop38
140
0.0
102
RTVSPost2010PropOp38
 70
     1
102
RTVSPost2010Prop39
140
1.0
102
RTVSPost2010PropOp39
 70
     1
102
RTVSPost2010Prop40
 90
        0
102
RTVSPost2010PropOp40
 70
     1
102
RTVSPost2010Prop41ColorIndex
 90
       18
102
RTVSPost2010Prop41ColorRGB
 90
        0
102
RTVSPost2010PropOp41
 70
     1
102
RTVSPost2010Prop42
 90
       50
102
RTVSPost2010PropOp42
 70
     1
102
RTVSPost2010Prop43
 90
        3
102
RTVSPost2010PropOp43
 70
     1
102
RTVSPost2010Prop44ColorIndex
 90
        5
102
RTVSPost2010Prop44ColorRGB
 90
      255
102
RTVSPost2010PropOp44
 70
     1
102
RTVSPost2010Prop45
280
     0
102
RTVSPost2010PropOp45
 70
     1
102
RTVSPost2010Prop46
 90
       50
102
RTVSPost2010PropOp46
 70
     1
102
RTVSPost2010Prop47
 90
       50
102
RTVSPost2010PropOp47
 70
     1
102
RTVSPost2010Prop48
 90
       50
102
RTVSPost2010PropOp48
 70
     1
102
RTVSPost2010Prop49
280
     0
102
RTVSPost2010PropOp49
 70
     1
102
RTVSPost2010Prop50
 90
       50
102
RTVSPost2010PropOp50
 70
     1
102
RTVSPost2010Prop51ColorIndex
 90
      256
102
RTVSPost2010Prop51ColorRGB
 90
-16777216
102
RTVSPost2010PropOp51
 70
     0
102
RTVSPost2010Prop52
140
1.0
102
RTVSPost2010PropOp52
 70
     0
102
RTVSPost2010Prop53
 90
        2
102
RTVSPost2010PropOp53
 70
     1
102
RTVSPost2010Prop54
  1
strokes_ogs.tif
102
RTVSPost2010PropOp54
 70
     1
102
RTVSPost2010Prop55
280
     0
102
RTVSPost2010PropOp55
 70
     1
102
RTVSPost2010Prop56
140
1.0
102
RTVSPost2010PropOp56
 70
     1
102
RTVSPost2010Prop57
140
1.0
102
RTVSPost2010PropOp57
 70
     1
  0
XRECORD
  5
E62
102
{ACAD_REACTORS
330
E61
102
}
330
E61
100
AcDbXrecord
280
     1
102
RTVSPost2010Prop28
280
     0
102
RTVSPost2010PropOp28
 70
     1
102
RTVSPost2010Prop29
280
     1
102
RTVSPost2010PropOp29
 70
     1
102
RTVSPost2010Prop30
280
     1
102
RTVSPost2010PropOp30
 70
     1
102
RTVSPost2010Prop31
280
     0
102
RTVSPost2010PropOp31
 70
     1
102
RTVSPost2010Prop32
280
     0
102
RTVSPost2010PropOp32
 70
     1
102
RTVSPost2010Prop33
280
     0
102
RTVSPost2010PropOp33
 70
     1
102
RTVSPost2010Prop34
280
     0
102
RTVSPost2010PropOp34
 70
     1
102
RTVSPost2010Prop35
280
     0
102
RTVSPost2010PropOp35
 70
     1
102
RTVSPost2010Prop36
280
     0
102
RTVSPost2010PropOp36
 70
     1
102
RTVSPost2010Prop37
 90
       50
102
RTVSPost2010PropOp37
 70
     1
102
RTVSPost2010Prop38
140
0.0
102
RTVSPost2010PropOp38
 70
     1
102
RTVSPost2010Prop39
140
1.0
102
RTVSPost2010PropOp39
 70
     1
102
RTVSPost2010Prop40
 90
        0
102
RTVSPost2010PropOp40
 70
     1
102
RTVSPost2010Prop41ColorIndex
 90
       18
102
RTVSPost2010Prop41ColorRGB
 90
        0
102
RTVSPost2010PropOp41
 70
     1
102
RTVSPost2010Prop42
 90
       50
102
RTVSPost2010PropOp42
 70
     1
102
RTVSPost2010Prop43
 90
        3
102
RTVSPost2010PropOp43
 70
     1
102
RTVSPost2010Prop44ColorIndex
 90
        5
102
RTVSPost2010Prop44ColorRGB
 90
      255
102
RTVSPost2010PropOp44
 70
     1
102
RTVSPost2010Prop45
280
     0
102
RTVSPost2010PropOp45
 70
     1
102
RTVSPost2010Prop46
 90
       50
102
RTVSPost2010PropOp46
 70
     1
102
RTVSPost2010Prop47
 90
       50
102
RTVSPost2010PropOp47
 70
     1
102
RTVSPost2010Prop48
 90
       50
102
RTVSPost2010PropOp48
 70
     1
102
RTVSPost2010Prop49
280
     0
102
RTVSPost2010PropOp49
 70
     1
102
RTVSPost2010Prop50
 90
       50
102
RTVSPost2010PropOp50
 70
     1
102
RTVSPost2010Prop51ColorIndex
 90
      256
102
RTVSPost2010Prop51ColorRGB
 90
-16777216
102
RTVSPost2010PropOp51
 70
     0
102
RTVSPost2010Prop52
140
1.0
102
RTVSPost2010PropOp52
 70
     0
102
RTVSPost2010Prop53
 90
        2
102
RTVSPost2010PropOp53
 70
     1
102
RTVSPost2010Prop54
  1
strokes_ogs.tif
102
RTVSPost2010PropOp54
 70
     1
102
RTVSPost2010Prop55
280
     0
102
RTVSPost2010PropOp55
 70
     1
102
RTVSPost2010Prop56
140
1.0
102
RTVSPost2010PropOp56
 70
     1
102
RTVSPost2010Prop57
140
1.0
102
RTVSPost2010PropOp57
 70
     1
  0
XRECORD
  5
E64
102
{ACAD_REACTORS
330
E63
102
}
330
E63
100
AcDbXrecord
280
     1
102
RTVSPost2010Prop28
280
     0
102
RTVSPost2010PropOp28
 70
     1
102
RTVSPost2010Prop29
280
     1
102
RTVSPost2010PropOp29
 70
     1
102
RTVSPost2010Prop30
280
     1
102
RTVSPost2010PropOp30
 70
     1
102
RTVSPost2010Prop31
280
     0
102
RTVSPost2010PropOp31
 70
     1
102
RTVSPost2010Prop32
280
     0
102
RTVSPost2010PropOp32
 70
     1
102
RTVSPost2010Prop33
280
     0
102
RTVSPost2010PropOp33
 70
     1
102
RTVSPost2010Prop34
280
     0
102
RTVSPost2010PropOp34
 70
     1
102
RTVSPost2010Prop35
280
     0
102
RTVSPost2010PropOp35
 70
     1
102
RTVSPost2010Prop36
280
     0
102
RTVSPost2010PropOp36
 70
     1
102
RTVSPost2010Prop37
 90
       50
102
RTVSPost2010PropOp37
 70
     1
102
RTVSPost2010Prop38
140
0.0
102
RTVSPost2010PropOp38
 70
     1
102
RTVSPost2010Prop39
140
1.0
102
RTVSPost2010PropOp39
 70
     1
102
RTVSPost2010Prop40
 90
        0
102
RTVSPost2010PropOp40
 70
     1
102
RTVSPost2010Prop41ColorIndex
 90
       18
102
RTVSPost2010Prop41ColorRGB
 90
        0
102
RTVSPost2010PropOp41
 70
     1
102
RTVSPost2010Prop42
 90
       50
102
RTVSPost2010PropOp42
 70
     1
102
RTVSPost2010Prop43
 90
        3
102
RTVSPost2010PropOp43
 70
     1
102
RTVSPost2010Prop44ColorIndex
 90
        5
102
RTVSPost2010Prop44ColorRGB
 90
      255
102
RTVSPost2010PropOp44
 70
     1
102
RTVSPost2010Prop45
280
     0
102
RTVSPost2010PropOp45
 70
     1
102
RTVSPost2010Prop46
 90
       50
102
RTVSPost2010PropOp46
 70
     1
102
RTVSPost2010Prop47
 90
       50
102
RTVSPost2010PropOp47
 70
     1
102
RTVSPost2010Prop48
 90
       50
102
RTVSPost2010PropOp48
 70
     1
102
RTVSPost2010Prop49
280
     0
102
RTVSPost2010PropOp49
 70
     1
102
RTVSPost2010Prop50
 90
       50
102
RTVSPost2010PropOp50
 70
     1
102
RTVSPost2010Prop51ColorIndex
 90
      256
102
RTVSPost2010Prop51ColorRGB
 90
-16777216
102
RTVSPost2010PropOp51
 70
     0
102
RTVSPost2010Prop52
140
1.0
102
RTVSPost2010PropOp52
 70
     0
102
RTVSPost2010Prop53
 90
        2
102
RTVSPost2010PropOp53
 70
     1
102
RTVSPost2010Prop54
  1
strokes_ogs.tif
102
RTVSPost2010PropOp54
 70
     1
102
RTVSPost2010Prop55
280
     0
102
RTVSPost2010PropOp55
 70
     1
102
RTVSPost2010Prop56
140
1.0
102
RTVSPost2010PropOp56
 70
     1
102
RTVSPost2010Prop57
140
1.0
102
RTVSPost2010PropOp57
 70
     1
  0
XRECORD
  5
E74
102
{ACAD_REACTORS
330
E73
102
}
330
E73
100
AcDbXrecord
280
     1
102
RTVSPost2010Prop28
280
     0
102
RTVSPost2010PropOp28
 70
     0
102
RTVSPost2010Prop29
280
     1
102
RTVSPost2010PropOp29
 70
     0
102
RTVSPost2010Prop30
280
     1
102
RTVSPost2010PropOp30
 70
     0
102
RTVSPost2010Prop31
280
     0
102
RTVSPost2010PropOp31
 70
     0
102
RTVSPost2010Prop32
280
     0
102
RTVSPost2010PropOp32
 70
     0
102
RTVSPost2010Prop33
280
     0
102
RTVSPost2010PropOp33
 70
     0
102
RTVSPost2010Prop34
280
     0
102
RTVSPost2010PropOp34
 70
     0
102
RTVSPost2010Prop35
280
     0
102
RTVSPost2010PropOp35
 70
     0
102
RTVSPost2010Prop36
280
     0
102
RTVSPost2010PropOp36
 70
     0
102
RTVSPost2010Prop37
 90
       50
102
RTVSPost2010PropOp37
 70
     0
102
RTVSPost2010Prop38
140
0.0
102
RTVSPost2010PropOp38
 70
     0
102
RTVSPost2010Prop39
140
1.0
102
RTVSPost2010PropOp39
 70
     0
102
RTVSPost2010Prop40
 90
        0
102
RTVSPost2010PropOp40
 70
     0
102
RTVSPost2010Prop41ColorIndex
 90
       18
102
RTVSPost2010Prop41ColorRGB
 90
        0
102
RTVSPost2010PropOp41
 70
     0
102
RTVSPost2010Prop42
 90
       50
102
RTVSPost2010PropOp42
 70
     0
102
RTVSPost2010Prop43
 90
        3
102
RTVSPost2010PropOp43
 70
     0
102
RTVSPost2010Prop44ColorIndex
 90
        5
102
RTVSPost2010Prop44ColorRGB
 90
      255
102
RTVSPost2010PropOp44
 70
     0
102
RTVSPost2010Prop45
280
     0
102
RTVSPost2010PropOp45
 70
     0
102
RTVSPost2010Prop46
 90
       50
102
RTVSPost2010PropOp46
 70
     0
102
RTVSPost2010Prop47
 90
       50
102
RTVSPost2010PropOp47
 70
     0
102
RTVSPost2010Prop48
 90
       50
102
RTVSPost2010PropOp48
 70
     0
102
RTVSPost2010Prop49
280
     0
102
RTVSPost2010PropOp49
 70
     0
102
RTVSPost2010Prop50
 90
       50
102
RTVSPost2010PropOp50
 70
     0
102
RTVSPost2010Prop51ColorIndex
 90
      256
102
RTVSPost2010Prop51ColorRGB
 90
-16777216
102
RTVSPost2010PropOp51
 70
     0
102
RTVSPost2010Prop52
140
1.0
102
RTVSPost2010PropOp52
 70
     0
102
RTVSPost2010Prop53
 90
        2
102
RTVSPost2010PropOp53
 70
     0
102
RTVSPost2010Prop54
  1
strokes_ogs.tif
102
RTVSPost2010PropOp54
 70
     0
102
RTVSPost2010Prop55
280
     0
102
RTVSPost2010PropOp55
 70
     0
102
RTVSPost2010Prop56
140
1.0
102
RTVSPost2010PropOp56
 70
     0
102
RTVSPost2010Prop57
140
1.0
102
RTVSPost2010PropOp57
 70
     0
  0
XRECORD
  5
E6C
102
{ACAD_REACTORS
330
E6B
102
}
330
E6B
100
AcDbXrecord
280
     1
102
RTVSPost2010Prop28
280
     0
102
RTVSPost2010PropOp28
 70
     1
102
RTVSPost2010Prop29
280
     1
102
RTVSPost2010PropOp29
 70
     1
102
RTVSPost2010Prop30
280
     1
102
RTVSPost2010PropOp30
 70
     1
102
RTVSPost2010Prop31
280
     0
102
RTVSPost2010PropOp31
 70
     1
102
RTVSPost2010Prop32
280
     0
102
RTVSPost2010PropOp32
 70
     1
102
RTVSPost2010Prop33
280
     0
102
RTVSPost2010PropOp33
 70
     1
102
RTVSPost2010Prop34
280
     0
102
RTVSPost2010PropOp34
 70
     1
102
RTVSPost2010Prop35
280
     0
102
RTVSPost2010PropOp35
 70
     1
102
RTVSPost2010Prop36
280
     0
102
RTVSPost2010PropOp36
 70
     1
102
RTVSPost2010Prop37
 90
       50
102
RTVSPost2010PropOp37
 70
     1
102
RTVSPost2010Prop38
140
0.0
102
RTVSPost2010PropOp38
 70
     1
102
RTVSPost2010Prop39
140
1.0
102
RTVSPost2010PropOp39
 70
     1
102
RTVSPost2010Prop40
 90
        0
102
RTVSPost2010PropOp40
 70
     1
102
RTVSPost2010Prop41ColorIndex
 90
       18
102
RTVSPost2010Prop41ColorRGB
 90
        0
102
RTVSPost2010PropOp41
 70
     1
102
RTVSPost2010Prop42
 90
       50
102
RTVSPost2010PropOp42
 70
     1
102
RTVSPost2010Prop43
 90
        3
102
RTVSPost2010PropOp43
 70
     1
102
RTVSPost2010Prop44ColorIndex
 90
        5
102
RTVSPost2010Prop44ColorRGB
 90
      255
102
RTVSPost2010PropOp44
 70
     1
102
RTVSPost2010Prop45
280
     0
102
RTVSPost2010PropOp45
 70
     1
102
RTVSPost2010Prop46
 90
       50
102
RTVSPost2010PropOp46
 70
     1
102
RTVSPost2010Prop47
 90
       50
102
RTVSPost2010PropOp47
 70
     1
102
RTVSPost2010Prop48
 90
       50
102
RTVSPost2010PropOp48
 70
     1
102
RTVSPost2010Prop49
280
     0
102
RTVSPost2010PropOp49
 70
     1
102
RTVSPost2010Prop50
 90
       50
102
RTVSPost2010PropOp50
 70
     1
102
RTVSPost2010Prop51ColorIndex
 90
      256
102
RTVSPost2010Prop51ColorRGB
 90
-16777216
102
RTVSPost2010PropOp51
 70
     0
102
RTVSPost2010Prop52
140
1.0
102
RTVSPost2010PropOp52
 70
     0
102
RTVSPost2010Prop53
 90
        2
102
RTVSPost2010PropOp53
 70
     1
102
RTVSPost2010Prop54
  1
strokes_ogs.tif
102
RTVSPost2010PropOp54
 70
     1
102
RTVSPost2010Prop55
280
     0
102
RTVSPost2010PropOp55
 70
     1
102
RTVSPost2010Prop56
140
1.0
102
RTVSPost2010PropOp56
 70
     1
102
RTVSPost2010Prop57
140
1.0
102
RTVSPost2010PropOp57
 70
     1
  0
XRECORD
  5
E50
102
{ACAD_REACTORS
330
E4F
102
}
330
E4F
100
AcDbXrecord
280
     1
102
RTVSPost2010Prop28
280
     0
102
RTVSPost2010PropOp28
 70
     1
102
RTVSPost2010Prop29
280
     1
102
RTVSPost2010PropOp29
 70
     1
102
RTVSPost2010Prop30
280
     1
102
RTVSPost2010PropOp30
 70
     1
102
RTVSPost2010Prop31
280
     0
102
RTVSPost2010PropOp31
 70
     1
102
RTVSPost2010Prop32
280
     0
102
RTVSPost2010PropOp32
 70
     1
102
RTVSPost2010Prop33
280
     0
102
RTVSPost2010PropOp33
 70
     1
102
RTVSPost2010Prop34
280
     0
102
RTVSPost2010PropOp34
 70
     1
102
RTVSPost2010Prop35
280
     0
102
RTVSPost2010PropOp35
 70
     1
102
RTVSPost2010Prop36
280
     0
102
RTVSPost2010PropOp36
 70
     1
102
RTVSPost2010Prop37
 90
       50
102
RTVSPost2010PropOp37
 70
     1
102
RTVSPost2010Prop38
140
0.0
102
RTVSPost2010PropOp38
 70
     1
102
RTVSPost2010Prop39
140
1.0
102
RTVSPost2010PropOp39
 70
     1
102
RTVSPost2010Prop40
 90
        0
102
RTVSPost2010PropOp40
 70
     1
102
RTVSPost2010Prop41ColorIndex
 90
       18
102
RTVSPost2010Prop41ColorRGB
 90
        0
102
RTVSPost2010PropOp41
 70
     1
102
RTVSPost2010Prop42
 90
       50
102
RTVSPost2010PropOp42
 70
     1
102
RTVSPost2010Prop43
 90
        3
102
RTVSPost2010PropOp43
 70
     1
102
RTVSPost2010Prop44ColorIndex
 90
        5
102
RTVSPost2010Prop44ColorRGB
 90
      255
102
RTVSPost2010PropOp44
 70
     1
102
RTVSPost2010Prop45
280
     0
102
RTVSPost2010PropOp45
 70
     1
102
RTVSPost2010Prop46
 90
       50
102
RTVSPost2010PropOp46
 70
     1
102
RTVSPost2010Prop47
 90
       50
102
RTVSPost2010PropOp47
 70
     1
102
RTVSPost2010Prop48
 90
       50
102
RTVSPost2010PropOp48
 70
     1
102
RTVSPost2010Prop49
280
     0
102
RTVSPost2010PropOp49
 70
     1
102
RTVSPost2010Prop50
 90
       50
102
RTVSPost2010PropOp50
 70
     1
102
RTVSPost2010Prop51ColorIndex
 90
      256
102
RTVSPost2010Prop51ColorRGB
 90
-16777216
102
RTVSPost2010PropOp51
 70
     0
102
RTVSPost2010Prop52
140
1.0
102
RTVSPost2010PropOp52
 70
     0
102
RTVSPost2010Prop53
 90
        2
102
RTVSPost2010PropOp53
 70
     1
102
RTVSPost2010Prop54
  1
strokes_ogs.tif
102
RTVSPost2010PropOp54
 70
     1
102
RTVSPost2010Prop55
280
     0
102
RTVSPost2010PropOp55
 70
     1
102
RTVSPost2010Prop56
140
1.0
102
RTVSPost2010PropOp56
 70
     1
102
RTVSPost2010Prop57
140
1.0
102
RTVSPost2010PropOp57
 70
     1
  0
XRECORD
  5
E52
102
{ACAD_REACTORS
330
E51
102
}
330
E51
100
AcDbXrecord
280
     1
102
RTVSPost2010Prop28
280
     0
102
RTVSPost2010PropOp28
 70
     1
102
RTVSPost2010Prop29
280
     1
102
RTVSPost2010PropOp29
 70
     1
102
RTVSPost2010Prop30
280
     1
102
RTVSPost2010PropOp30
 70
     1
102
RTVSPost2010Prop31
280
     0
102
RTVSPost2010PropOp31
 70
     1
102
RTVSPost2010Prop32
280
     0
102
RTVSPost2010PropOp32
 70
     1
102
RTVSPost2010Prop33
280
     0
102
RTVSPost2010PropOp33
 70
     1
102
RTVSPost2010Prop34
280
     0
102
RTVSPost2010PropOp34
 70
     1
102
RTVSPost2010Prop35
280
     0
102
RTVSPost2010PropOp35
 70
     1
102
RTVSPost2010Prop36
280
     0
102
RTVSPost2010PropOp36
 70
     1
102
RTVSPost2010Prop37
 90
       50
102
RTVSPost2010PropOp37
 70
     1
102
RTVSPost2010Prop38
140
0.0
102
RTVSPost2010PropOp38
 70
     1
102
RTVSPost2010Prop39
140
1.0
102
RTVSPost2010PropOp39
 70
     1
102
RTVSPost2010Prop40
 90
        0
102
RTVSPost2010PropOp40
 70
     1
102
RTVSPost2010Prop41ColorIndex
 90
       18
102
RTVSPost2010Prop41ColorRGB
 90
        0
102
RTVSPost2010PropOp41
 70
     1
102
RTVSPost2010Prop42
 90
       50
102
RTVSPost2010PropOp42
 70
     1
102
RTVSPost2010Prop43
 90
        3
102
RTVSPost2010PropOp43
 70
     1
102
RTVSPost2010Prop44ColorIndex
 90
        5
102
RTVSPost2010Prop44ColorRGB
 90
      255
102
RTVSPost2010PropOp44
 70
     1
102
RTVSPost2010Prop45
280
     0
102
RTVSPost2010PropOp45
 70
     1
102
RTVSPost2010Prop46
 90
       50
102
RTVSPost2010PropOp46
 70
     1
102
RTVSPost2010Prop47
 90
       50
102
RTVSPost2010PropOp47
 70
     1
102
RTVSPost2010Prop48
 90
       50
102
RTVSPost2010PropOp48
 70
     1
102
RTVSPost2010Prop49
280
     0
102
RTVSPost2010PropOp49
 70
     1
102
RTVSPost2010Prop50
 90
       50
102
RTVSPost2010PropOp50
 70
     1
102
RTVSPost2010Prop51ColorIndex
 90
      256
102
RTVSPost2010Prop51ColorRGB
 90
-16777216
102
RTVSPost2010PropOp51
 70
     0
102
RTVSPost2010Prop52
140
1.0
102
RTVSPost2010PropOp52
 70
     0
102
RTVSPost2010Prop53
 90
        2
102
RTVSPost2010PropOp53
 70
     1
102
RTVSPost2010Prop54
  1
strokes_ogs.tif
102
RTVSPost2010PropOp54
 70
     1
102
RTVSPost2010Prop55
280
     0
102
RTVSPost2010PropOp55
 70
     1
102
RTVSPost2010Prop56
140
1.0
102
RTVSPost2010PropOp56
 70
     1
102
RTVSPost2010Prop57
140
1.0
102
RTVSPost2010PropOp57
 70
     1
  0
XRECORD
  5
E54
102
{ACAD_REACTORS
330
E53
102
}
330
E53
100
AcDbXrecord
280
     1
102
RTVSPost2010Prop28
280
     0
102
RTVSPost2010PropOp28
 70
     1
102
RTVSPost2010Prop29
280
     1
102
RTVSPost2010PropOp29
 70
     1
102
RTVSPost2010Prop30
280
     1
102
RTVSPost2010PropOp30
 70
     1
102
RTVSPost2010Prop31
280
     0
102
RTVSPost2010PropOp31
 70
     1
102
RTVSPost2010Prop32
280
     0
102
RTVSPost2010PropOp32
 70
     1
102
RTVSPost2010Prop33
280
     0
102
RTVSPost2010PropOp33
 70
     1
102
RTVSPost2010Prop34
280
     0
102
RTVSPost2010PropOp34
 70
     1
102
RTVSPost2010Prop35
280
     0
102
RTVSPost2010PropOp35
 70
     1
102
RTVSPost2010Prop36
280
     0
102
RTVSPost2010PropOp36
 70
     1
102
RTVSPost2010Prop37
 90
       50
102
RTVSPost2010PropOp37
 70
     1
102
RTVSPost2010Prop38
140
0.0
102
RTVSPost2010PropOp38
 70
     1
102
RTVSPost2010Prop39
140
1.0
102
RTVSPost2010PropOp39
 70
     1
102
RTVSPost2010Prop40
 90
        0
102
RTVSPost2010PropOp40
 70
     1
102
RTVSPost2010Prop41ColorIndex
 90
       18
102
RTVSPost2010Prop41ColorRGB
 90
        0
102
RTVSPost2010PropOp41
 70
     1
102
RTVSPost2010Prop42
 90
       50
102
RTVSPost2010PropOp42
 70
     1
102
RTVSPost2010Prop43
 90
        3
102
RTVSPost2010PropOp43
 70
     1
102
RTVSPost2010Prop44ColorIndex
 90
        5
102
RTVSPost2010Prop44ColorRGB
 90
      255
102
RTVSPost2010PropOp44
 70
     1
102
RTVSPost2010Prop45
280
     0
102
RTVSPost2010PropOp45
 70
     1
102
RTVSPost2010Prop46
 90
       50
102
RTVSPost2010PropOp46
 70
     1
102
RTVSPost2010Prop47
 90
       50
102
RTVSPost2010PropOp47
 70
     1
102
RTVSPost2010Prop48
 90
       50
102
RTVSPost2010PropOp48
 70
     1
102
RTVSPost2010Prop49
280
     0
102
RTVSPost2010PropOp49
 70
     1
102
RTVSPost2010Prop50
 90
       50
102
RTVSPost2010PropOp50
 70
     1
102
RTVSPost2010Prop51ColorIndex
 90
      256
102
RTVSPost2010Prop51ColorRGB
 90
-16777216
102
RTVSPost2010PropOp51
 70
     0
102
RTVSPost2010Prop52
140
1.0
102
RTVSPost2010PropOp52
 70
     0
102
RTVSPost2010Prop53
 90
        2
102
RTVSPost2010PropOp53
 70
     1
102
RTVSPost2010Prop54
  1
strokes_ogs.tif
102
RTVSPost2010PropOp54
 70
     1
102
RTVSPost2010Prop55
280
     0
102
RTVSPost2010PropOp55
 70
     1
102
RTVSPost2010Prop56
140
1.0
102
RTVSPost2010PropOp56
 70
     1
102
RTVSPost2010Prop57
140
1.0
102
RTVSPost2010PropOp57
 70
     1
  0
XRECORD
  5
E56
102
{ACAD_REACTORS
330
E55
102
}
330
E55
100
AcDbXrecord
280
     1
102
RTVSPost2010Prop28
280
     0
102
RTVSPost2010PropOp28
 70
     1
102
RTVSPost2010Prop29
280
     1
102
RTVSPost2010PropOp29
 70
     1
102
RTVSPost2010Prop30
280
     1
102
RTVSPost2010PropOp30
 70
     1
102
RTVSPost2010Prop31
280
     0
102
RTVSPost2010PropOp31
 70
     1
102
RTVSPost2010Prop32
280
     0
102
RTVSPost2010PropOp32
 70
     1
102
RTVSPost2010Prop33
280
     0
102
RTVSPost2010PropOp33
 70
     1
102
RTVSPost2010Prop34
280
     0
102
RTVSPost2010PropOp34
 70
     1
102
RTVSPost2010Prop35
280
     0
102
RTVSPost2010PropOp35
 70
     1
102
RTVSPost2010Prop36
280
     0
102
RTVSPost2010PropOp36
 70
     1
102
RTVSPost2010Prop37
 90
       50
102
RTVSPost2010PropOp37
 70
     1
102
RTVSPost2010Prop38
140
0.0
102
RTVSPost2010PropOp38
 70
     1
102
RTVSPost2010Prop39
140
1.0
102
RTVSPost2010PropOp39
 70
     1
102
RTVSPost2010Prop40
 90
        0
102
RTVSPost2010PropOp40
 70
     1
102
RTVSPost2010Prop41ColorIndex
 90
       18
102
RTVSPost2010Prop41ColorRGB
 90
        0
102
RTVSPost2010PropOp41
 70
     1
102
RTVSPost2010Prop42
 90
       50
102
RTVSPost2010PropOp42
 70
     1
102
RTVSPost2010Prop43
 90
        3
102
RTVSPost2010PropOp43
 70
     1
102
RTVSPost2010Prop44ColorIndex
 90
        5
102
RTVSPost2010Prop44ColorRGB
 90
      255
102
RTVSPost2010PropOp44
 70
     1
102
RTVSPost2010Prop45
280
     0
102
RTVSPost2010PropOp45
 70
     1
102
RTVSPost2010Prop46
 90
       50
102
RTVSPost2010PropOp46
 70
     1
102
RTVSPost2010Prop47
 90
       50
102
RTVSPost2010PropOp47
 70
     1
102
RTVSPost2010Prop48
 90
       50
102
RTVSPost2010PropOp48
 70
     1
102
RTVSPost2010Prop49
280
     0
102
RTVSPost2010PropOp49
 70
     1
102
RTVSPost2010Prop50
 90
       50
102
RTVSPost2010PropOp50
 70
     1
102
RTVSPost2010Prop51ColorIndex
 90
      256
102
RTVSPost2010Prop51ColorRGB
 90
-16777216
102
RTVSPost2010PropOp51
 70
     0
102
RTVSPost2010Prop52
140
1.0
102
RTVSPost2010PropOp52
 70
     0
102
RTVSPost2010Prop53
 90
        2
102
RTVSPost2010PropOp53
 70
     1
102
RTVSPost2010Prop54
  1
strokes_ogs.tif
102
RTVSPost2010PropOp54
 70
     1
102
RTVSPost2010Prop55
280
     0
102
RTVSPost2010PropOp55
 70
     1
102
RTVSPost2010Prop56
140
1.0
102
RTVSPost2010PropOp56
 70
     1
102
RTVSPost2010Prop57
140
1.0
102
RTVSPost2010PropOp57
 70
     1
  0
XRECORD
  5
E5C
102
{ACAD_REACTORS
330
E5B
102
}
330
E5B
100
AcDbXrecord
280
     1
102
RTVSPost2010Prop28
280
     0
102
RTVSPost2010PropOp28
 70
     1
102
RTVSPost2010Prop29
280
     1
102
RTVSPost2010PropOp29
 70
     1
102
RTVSPost2010Prop30
280
     1
102
RTVSPost2010PropOp30
 70
     1
102
RTVSPost2010Prop31
280
     0
102
RTVSPost2010PropOp31
 70
     1
102
RTVSPost2010Prop32
280
     0
102
RTVSPost2010PropOp32
 70
     1
102
RTVSPost2010Prop33
280
     0
102
RTVSPost2010PropOp33
 70
     1
102
RTVSPost2010Prop34
280
     0
102
RTVSPost2010PropOp34
 70
     1
102
RTVSPost2010Prop35
280
     0
102
RTVSPost2010PropOp35
 70
     1
102
RTVSPost2010Prop36
280
     0
102
RTVSPost2010PropOp36
 70
     1
102
RTVSPost2010Prop37
 90
       50
102
RTVSPost2010PropOp37
 70
     1
102
RTVSPost2010Prop38
140
0.0
102
RTVSPost2010PropOp38
 70
     1
102
RTVSPost2010Prop39
140
1.0
102
RTVSPost2010PropOp39
 70
     1
102
RTVSPost2010Prop40
 90
        0
102
RTVSPost2010PropOp40
 70
     1
102
RTVSPost2010Prop41ColorIndex
 90
       18
102
RTVSPost2010Prop41ColorRGB
 90
        0
102
RTVSPost2010PropOp41
 70
     1
102
RTVSPost2010Prop42
 90
       50
102
RTVSPost2010PropOp42
 70
     1
102
RTVSPost2010Prop43
 90
        3
102
RTVSPost2010PropOp43
 70
     1
102
RTVSPost2010Prop44ColorIndex
 90
        5
102
RTVSPost2010Prop44ColorRGB
 90
      255
102
RTVSPost2010PropOp44
 70
     1
102
RTVSPost2010Prop45
280
     0
102
RTVSPost2010PropOp45
 70
     1
102
RTVSPost2010Prop46
 90
       50
102
RTVSPost2010PropOp46
 70
     1
102
RTVSPost2010Prop47
 90
       50
102
RTVSPost2010PropOp47
 70
     1
102
RTVSPost2010Prop48
 90
       50
102
RTVSPost2010PropOp48
 70
     1
102
RTVSPost2010Prop49
280
     0
102
RTVSPost2010PropOp49
 70
     1
102
RTVSPost2010Prop50
 90
       50
102
RTVSPost2010PropOp50
 70
     1
102
RTVSPost2010Prop51ColorIndex
 90
      256
102
RTVSPost2010Prop51ColorRGB
 90
-16777216
102
RTVSPost2010PropOp51
 70
     0
102
RTVSPost2010Prop52
140
1.0
102
RTVSPost2010PropOp52
 70
     0
102
RTVSPost2010Prop53
 90
        2
102
RTVSPost2010PropOp53
 70
     1
102
RTVSPost2010Prop54
  1
strokes_ogs.tif
102
RTVSPost2010PropOp54
 70
     1
102
RTVSPost2010Prop55
280
     0
102
RTVSPost2010PropOp55
 70
     1
102
RTVSPost2010Prop56
140
1.0
102
RTVSPost2010PropOp56
 70
     1
102
RTVSPost2010Prop57
140
1.0
102
RTVSPost2010PropOp57
 70
     1
  0
XRECORD
  5
E70
102
{ACAD_REACTORS
330
E6F
102
}
330
E6F
100
AcDbXrecord
280
     1
102
RTVSPost2010Prop28
280
     0
102
RTVSPost2010PropOp28
 70
     0
102
RTVSPost2010Prop29
280
     1
102
RTVSPost2010PropOp29
 70
     0
102
RTVSPost2010Prop30
280
     1
102
RTVSPost2010PropOp30
 70
     0
102
RTVSPost2010Prop31
280
     0
102
RTVSPost2010PropOp31
 70
     0
102
RTVSPost2010Prop32
280
     0
102
RTVSPost2010PropOp32
 70
     0
102
RTVSPost2010Prop33
280
     0
102
RTVSPost2010PropOp33
 70
     0
102
RTVSPost2010Prop34
280
     0
102
RTVSPost2010PropOp34
 70
     0
102
RTVSPost2010Prop35
280
     0
102
RTVSPost2010PropOp35
 70
     0
102
RTVSPost2010Prop36
280
     0
102
RTVSPost2010PropOp36
 70
     0
102
RTVSPost2010Prop37
 90
       50
102
RTVSPost2010PropOp37
 70
     0
102
RTVSPost2010Prop38
140
0.0
102
RTVSPost2010PropOp38
 70
     0
102
RTVSPost2010Prop39
140
1.0
102
RTVSPost2010PropOp39
 70
     0
102
RTVSPost2010Prop40
 90
        0
102
RTVSPost2010PropOp40
 70
     0
102
RTVSPost2010Prop41ColorIndex
 90
       18
102
RTVSPost2010Prop41ColorRGB
 90
        0
102
RTVSPost2010PropOp41
 70
     0
102
RTVSPost2010Prop42
 90
       50
102
RTVSPost2010PropOp42
 70
     0
102
RTVSPost2010Prop43
 90
        3
102
RTVSPost2010PropOp43
 70
     0
102
RTVSPost2010Prop44ColorIndex
 90
        5
102
RTVSPost2010Prop44ColorRGB
 90
      255
102
RTVSPost2010PropOp44
 70
     0
102
RTVSPost2010Prop45
280
     0
102
RTVSPost2010PropOp45
 70
     0
102
RTVSPost2010Prop46
 90
       50
102
RTVSPost2010PropOp46
 70
     0
102
RTVSPost2010Prop47
 90
       50
102
RTVSPost2010PropOp47
 70
     0
102
RTVSPost2010Prop48
 90
       50
102
RTVSPost2010PropOp48
 70
     0
102
RTVSPost2010Prop49
280
     0
102
RTVSPost2010PropOp49
 70
     0
102
RTVSPost2010Prop50
 90
       50
102
RTVSPost2010PropOp50
 70
     0
102
RTVSPost2010Prop51ColorIndex
 90
      256
102
RTVSPost2010Prop51ColorRGB
 90
-16777216
102
RTVSPost2010PropOp51
 70
     0
102
RTVSPost2010Prop52
140
1.0
102
RTVSPost2010PropOp52
 70
     0
102
RTVSPost2010Prop53
 90
        2
102
RTVSPost2010PropOp53
 70
     0
102
RTVSPost2010Prop54
  1
strokes_ogs.tif
102
RTVSPost2010PropOp54
 70
     0
102
RTVSPost2010Prop55
280
     0
102
RTVSPost2010PropOp55
 70
     0
102
RTVSPost2010Prop56
140
1.0
102
RTVSPost2010PropOp56
 70
     0
102
RTVSPost2010Prop57
140
1.0
102
RTVSPost2010PropOp57
 70
     0
  0
XRECORD
  5
E6A
102
{ACAD_REACTORS
330
E69
102
}
330
E69
100
AcDbXrecord
280
     1
102
RTVSPost2010Prop28
280
     0
102
RTVSPost2010PropOp28
 70
     1
102
RTVSPost2010Prop29
280
     1
102
RTVSPost2010PropOp29
 70
     1
102
RTVSPost2010Prop30
280
     1
102
RTVSPost2010PropOp30
 70
     1
102
RTVSPost2010Prop31
280
     0
102
RTVSPost2010PropOp31
 70
     1
102
RTVSPost2010Prop32
280
     0
102
RTVSPost2010PropOp32
 70
     1
102
RTVSPost2010Prop33
280
     0
102
RTVSPost2010PropOp33
 70
     1
102
RTVSPost2010Prop34
280
     0
102
RTVSPost2010PropOp34
 70
     1
102
RTVSPost2010Prop35
280
     0
102
RTVSPost2010PropOp35
 70
     1
102
RTVSPost2010Prop36
280
     0
102
RTVSPost2010PropOp36
 70
     1
102
RTVSPost2010Prop37
 90
       50
102
RTVSPost2010PropOp37
 70
     1
102
RTVSPost2010Prop38
140
0.0
102
RTVSPost2010PropOp38
 70
     1
102
RTVSPost2010Prop39
140
1.0
102
RTVSPost2010PropOp39
 70
     1
102
RTVSPost2010Prop40
 90
        0
102
RTVSPost2010PropOp40
 70
     1
102
RTVSPost2010Prop41ColorIndex
 90
       18
102
RTVSPost2010Prop41ColorRGB
 90
        0
102
RTVSPost2010PropOp41
 70
     1
102
RTVSPost2010Prop42
 90
       50
102
RTVSPost2010PropOp42
 70
     1
102
RTVSPost2010Prop43
 90
        3
102
RTVSPost2010PropOp43
 70
     1
102
RTVSPost2010Prop44ColorIndex
 90
        5
102
RTVSPost2010Prop44ColorRGB
 90
      255
102
RTVSPost2010PropOp44
 70
     1
102
RTVSPost2010Prop45
280
     0
102
RTVSPost2010PropOp45
 70
     1
102
RTVSPost2010Prop46
 90
       50
102
RTVSPost2010PropOp46
 70
     1
102
RTVSPost2010Prop47
 90
       50
102
RTVSPost2010PropOp47
 70
     1
102
RTVSPost2010Prop48
 90
       50
102
RTVSPost2010PropOp48
 70
     1
102
RTVSPost2010Prop49
280
     0
102
RTVSPost2010PropOp49
 70
     1
102
RTVSPost2010Prop50
 90
       50
102
RTVSPost2010PropOp50
 70
     1
102
RTVSPost2010Prop51ColorIndex
 90
      256
102
RTVSPost2010Prop51ColorRGB
 90
-16777216
102
RTVSPost2010PropOp51
 70
     0
102
RTVSPost2010Prop52
140
1.0
102
RTVSPost2010PropOp52
 70
     0
102
RTVSPost2010Prop53
 90
        2
102
RTVSPost2010PropOp53
 70
     1
102
RTVSPost2010Prop54
  1
strokes_ogs.tif
102
RTVSPost2010PropOp54
 70
     1
102
RTVSPost2010Prop55
280
     0
102
RTVSPost2010PropOp55
 70
     1
102
RTVSPost2010Prop56
140
1.0
102
RTVSPost2010PropOp56
 70
     1
102
RTVSPost2010Prop57
140
1.0
102
RTVSPost2010PropOp57
 70
     1
  0
XRECORD
  5
E72
102
{ACAD_REACTORS
330
E71
102
}
330
E71
100
AcDbXrecord
280
     1
102
RTVSPost2010Prop28
280
     0
102
RTVSPost2010PropOp28
 70
     0
102
RTVSPost2010Prop29
280
     1
102
RTVSPost2010PropOp29
 70
     0
102
RTVSPost2010Prop30
280
     1
102
RTVSPost2010PropOp30
 70
     0
102
RTVSPost2010Prop31
280
     0
102
RTVSPost2010PropOp31
 70
     0
102
RTVSPost2010Prop32
280
     0
102
RTVSPost2010PropOp32
 70
     0
102
RTVSPost2010Prop33
280
     0
102
RTVSPost2010PropOp33
 70
     0
102
RTVSPost2010Prop34
280
     0
102
RTVSPost2010PropOp34
 70
     0
102
RTVSPost2010Prop35
280
     0
102
RTVSPost2010PropOp35
 70
     0
102
RTVSPost2010Prop36
280
     0
102
RTVSPost2010PropOp36
 70
     0
102
RTVSPost2010Prop37
 90
       50
102
RTVSPost2010PropOp37
 70
     0
102
RTVSPost2010Prop38
140
0.0
102
RTVSPost2010PropOp38
 70
     0
102
RTVSPost2010Prop39
140
1.0
102
RTVSPost2010PropOp39
 70
     0
102
RTVSPost2010Prop40
 90
        0
102
RTVSPost2010PropOp40
 70
     0
102
RTVSPost2010Prop41ColorIndex
 90
       18
102
RTVSPost2010Prop41ColorRGB
 90
        0
102
RTVSPost2010PropOp41
 70
     0
102
RTVSPost2010Prop42
 90
       50
102
RTVSPost2010PropOp42
 70
     0
102
RTVSPost2010Prop43
 90
        3
102
RTVSPost2010PropOp43
 70
     0
102
RTVSPost2010Prop44ColorIndex
 90
        5
102
RTVSPost2010Prop44ColorRGB
 90
      255
102
RTVSPost2010PropOp44
 70
     0
102
RTVSPost2010Prop45
280
     0
102
RTVSPost2010PropOp45
 70
     0
102
RTVSPost2010Prop46
 90
       50
102
RTVSPost2010PropOp46
 70
     0
102
RTVSPost2010Prop47
 90
       50
102
RTVSPost2010PropOp47
 70
     0
102
RTVSPost2010Prop48
 90
       50
102
RTVSPost2010PropOp48
 70
     0
102
RTVSPost2010Prop49
280
     0
102
RTVSPost2010PropOp49
 70
     0
102
RTVSPost2010Prop50
 90
       50
102
RTVSPost2010PropOp50
 70
     0
102
RTVSPost2010Prop51ColorIndex
 90
      256
102
RTVSPost2010Prop51ColorRGB
 90
-16777216
102
RTVSPost2010PropOp51
 70
     0
102
RTVSPost2010Prop52
140
1.0
102
RTVSPost2010PropOp52
 70
     0
102
RTVSPost2010Prop53
 90
        2
102
RTVSPost2010PropOp53
 70
     0
102
RTVSPost2010Prop54
  1
strokes_ogs.tif
102
RTVSPost2010PropOp54
 70
     0
102
RTVSPost2010Prop55
280
     0
102
RTVSPost2010PropOp55
 70
     0
102
RTVSPost2010Prop56
140
1.0
102
RTVSPost2010PropOp56
 70
     0
102
RTVSPost2010Prop57
140
1.0
102
RTVSPost2010PropOp57
 70
     0
  0
XRECORD
  5
E60
102
{ACAD_REACTORS
330
E5F
102
}
330
E5F
100
AcDbXrecord
280
     1
102
RTVSPost2010Prop28
280
     0
102
RTVSPost2010PropOp28
 70
     1
102
RTVSPost2010Prop29
280
     1
102
RTVSPost2010PropOp29
 70
     1
102
RTVSPost2010Prop30
280
     1
102
RTVSPost2010PropOp30
 70
     1
102
RTVSPost2010Prop31
280
     0
102
RTVSPost2010PropOp31
 70
     1
102
RTVSPost2010Prop32
280
     0
102
RTVSPost2010PropOp32
 70
     1
102
RTVSPost2010Prop33
280
     0
102
RTVSPost2010PropOp33
 70
     1
102
RTVSPost2010Prop34
280
     0
102
RTVSPost2010PropOp34
 70
     1
102
RTVSPost2010Prop35
280
     0
102
RTVSPost2010PropOp35
 70
     1
102
RTVSPost2010Prop36
280
     0
102
RTVSPost2010PropOp36
 70
     1
102
RTVSPost2010Prop37
 90
       50
102
RTVSPost2010PropOp37
 70
     1
102
RTVSPost2010Prop38
140
0.0
102
RTVSPost2010PropOp38
 70
     1
102
RTVSPost2010Prop39
140
1.0
102
RTVSPost2010PropOp39
 70
     1
102
RTVSPost2010Prop40
 90
        0
102
RTVSPost2010PropOp40
 70
     1
102
RTVSPost2010Prop41ColorIndex
 90
       18
102
RTVSPost2010Prop41ColorRGB
 90
        0
102
RTVSPost2010PropOp41
 70
     1
102
RTVSPost2010Prop42
 90
       50
102
RTVSPost2010PropOp42
 70
     1
102
RTVSPost2010Prop43
 90
        3
102
RTVSPost2010PropOp43
 70
     1
102
RTVSPost2010Prop44ColorIndex
 90
        5
102
RTVSPost2010Prop44ColorRGB
 90
      255
102
RTVSPost2010PropOp44
 70
     1
102
RTVSPost2010Prop45
280
     0
102
RTVSPost2010PropOp45
 70
     1
102
RTVSPost2010Prop46
 90
       50
102
RTVSPost2010PropOp46
 70
     1
102
RTVSPost2010Prop47
 90
       50
102
RTVSPost2010PropOp47
 70
     1
102
RTVSPost2010Prop48
 90
       50
102
RTVSPost2010PropOp48
 70
     1
102
RTVSPost2010Prop49
280
     0
102
RTVSPost2010PropOp49
 70
     1
102
RTVSPost2010Prop50
 90
       50
102
RTVSPost2010PropOp50
 70
     1
102
RTVSPost2010Prop51ColorIndex
 90
      256
102
RTVSPost2010Prop51ColorRGB
 90
-16777216
102
RTVSPost2010PropOp51
 70
     0
102
RTVSPost2010Prop52
140
1.0
102
RTVSPost2010PropOp52
 70
     0
102
RTVSPost2010Prop53
 90
        2
102
RTVSPost2010PropOp53
 70
     1
102
RTVSPost2010Prop54
  1
strokes_ogs.tif
102
RTVSPost2010PropOp54
 70
     1
102
RTVSPost2010Prop55
280
     0
102
RTVSPost2010PropOp55
 70
     1
102
RTVSPost2010Prop56
140
1.0
102
RTVSPost2010PropOp56
 70
     1
102
RTVSPost2010Prop57
140
1.0
102
RTVSPost2010PropOp57
 70
     1
  0
XRECORD
  5
E7E
102
{ACAD_REACTORS
330
E7D
102
}
330
E7D
100
AcDbXrecord
280
     1
102
RTVSPost2010Prop28
280
     0
102
RTVSPost2010PropOp28
 70
     1
102
RTVSPost2010Prop29
280
     1
102
RTVSPost2010PropOp29
 70
     1
102
RTVSPost2010Prop30
280
     1
102
RTVSPost2010PropOp30
 70
     1
102
RTVSPost2010Prop31
280
     0
102
RTVSPost2010PropOp31
 70
     1
102
RTVSPost2010Prop32
280
     0
102
RTVSPost2010PropOp32
 70
     1
102
RTVSPost2010Prop33
280
     0
102
RTVSPost2010PropOp33
 70
     1
102
RTVSPost2010Prop34
280
     0
102
RTVSPost2010PropOp34
 70
     1
102
RTVSPost2010Prop35
280
     0
102
RTVSPost2010PropOp35
 70
     1
102
RTVSPost2010Prop36
280
     0
102
RTVSPost2010PropOp36
 70
     1
102
RTVSPost2010Prop37
 90
       50
102
RTVSPost2010PropOp37
 70
     1
102
RTVSPost2010Prop38
140
0.0
102
RTVSPost2010PropOp38
 70
     1
102
RTVSPost2010Prop39
140
1.0
102
RTVSPost2010PropOp39
 70
     1
102
RTVSPost2010Prop40
 90
        0
102
RTVSPost2010PropOp40
 70
     1
102
RTVSPost2010Prop41ColorIndex
 90
       18
102
RTVSPost2010Prop41ColorRGB
 90
        0
102
RTVSPost2010PropOp41
 70
     1
102
RTVSPost2010Prop42
 90
       50
102
RTVSPost2010PropOp42
 70
     1
102
RTVSPost2010Prop43
 90
        3
102
RTVSPost2010PropOp43
 70
     1
102
RTVSPost2010Prop44ColorIndex
 90
        5
102
RTVSPost2010Prop44ColorRGB
 90
      255
102
RTVSPost2010PropOp44
 70
     1
102
RTVSPost2010Prop45
280
     0
102
RTVSPost2010PropOp45
 70
     1
102
RTVSPost2010Prop46
 90
       50
102
RTVSPost2010PropOp46
 70
     1
102
RTVSPost2010Prop47
 90
       50
102
RTVSPost2010PropOp47
 70
     1
102
RTVSPost2010Prop48
 90
       50
102
RTVSPost2010PropOp48
 70
     1
102
RTVSPost2010Prop49
280
     0
102
RTVSPost2010PropOp49
 70
     1
102
RTVSPost2010Prop50
 90
       50
102
RTVSPost2010PropOp50
 70
     1
102
RTVSPost2010Prop51ColorIndex
 90
      256
102
RTVSPost2010Prop51ColorRGB
 90
-16777216
102
RTVSPost2010PropOp51
 70
     0
102
RTVSPost2010Prop52
140
1.0
102
RTVSPost2010PropOp52
 70
     0
102
RTVSPost2010Prop53
 90
        2
102
RTVSPost2010PropOp53
 70
     1
102
RTVSPost2010Prop54
  1
strokes_ogs.tif
102
RTVSPost2010PropOp54
 70
     1
102
RTVSPost2010Prop55
280
     0
102
RTVSPost2010PropOp55
 70
     1
102
RTVSPost2010Prop56
140
1.0
102
RTVSPost2010PropOp56
 70
     1
102
RTVSPost2010Prop57
140
1.0
102
RTVSPost2010PropOp57
 70
     1
  0
XRECORD
  5
E7C
102
{ACAD_REACTORS
330
E7B
102
}
330
E7B
100
AcDbXrecord
280
     1
102
RTVSPost2010Prop28
280
     0
102
RTVSPost2010PropOp28
 70
     1
102
RTVSPost2010Prop29
280
     1
102
RTVSPost2010PropOp29
 70
     1
102
RTVSPost2010Prop30
280
     1
102
RTVSPost2010PropOp30
 70
     1
102
RTVSPost2010Prop31
280
     0
102
RTVSPost2010PropOp31
 70
     1
102
RTVSPost2010Prop32
280
     0
102
RTVSPost2010PropOp32
 70
     1
102
RTVSPost2010Prop33
280
     0
102
RTVSPost2010PropOp33
 70
     1
102
RTVSPost2010Prop34
280
     0
102
RTVSPost2010PropOp34
 70
     1
102
RTVSPost2010Prop35
280
     0
102
RTVSPost2010PropOp35
 70
     1
102
RTVSPost2010Prop36
280
     0
102
RTVSPost2010PropOp36
 70
     1
102
RTVSPost2010Prop37
 90
       50
102
RTVSPost2010PropOp37
 70
     1
102
RTVSPost2010Prop38
140
0.0
102
RTVSPost2010PropOp38
 70
     1
102
RTVSPost2010Prop39
140
1.0
102
RTVSPost2010PropOp39
 70
     1
102
RTVSPost2010Prop40
 90
        0
102
RTVSPost2010PropOp40
 70
     1
102
RTVSPost2010Prop41ColorIndex
 90
       18
102
RTVSPost2010Prop41ColorRGB
 90
        0
102
RTVSPost2010PropOp41
 70
     1
102
RTVSPost2010Prop42
 90
       50
102
RTVSPost2010PropOp42
 70
     1
102
RTVSPost2010Prop43
 90
        3
102
RTVSPost2010PropOp43
 70
     1
102
RTVSPost2010Prop44ColorIndex
 90
        5
102
RTVSPost2010Prop44ColorRGB
 90
      255
102
RTVSPost2010PropOp44
 70
     1
102
RTVSPost2010Prop45
280
     0
102
RTVSPost2010PropOp45
 70
     1
102
RTVSPost2010Prop46
 90
       50
102
RTVSPost2010PropOp46
 70
     1
102
RTVSPost2010Prop47
 90
       50
102
RTVSPost2010PropOp47
 70
     1
102
RTVSPost2010Prop48
 90
       50
102
RTVSPost2010PropOp48
 70
     1
102
RTVSPost2010Prop49
280
     0
102
RTVSPost2010PropOp49
 70
     1
102
RTVSPost2010Prop50
 90
       50
102
RTVSPost2010PropOp50
 70
     1
102
RTVSPost2010Prop51ColorIndex
 90
      256
102
RTVSPost2010Prop51ColorRGB
 90
-16777216
102
RTVSPost2010PropOp51
 70
     0
102
RTVSPost2010Prop52
140
1.0
102
RTVSPost2010PropOp52
 70
     0
102
RTVSPost2010Prop53
 90
        2
102
RTVSPost2010PropOp53
 70
     1
102
RTVSPost2010Prop54
  1
strokes_ogs.tif
102
RTVSPost2010PropOp54
 70
     1
102
RTVSPost2010Prop55
280
     0
102
RTVSPost2010PropOp55
 70
     1
102
RTVSPost2010Prop56
140
1.0
102
RTVSPost2010PropOp56
 70
     1
102
RTVSPost2010Prop57
140
1.0
102
RTVSPost2010PropOp57
 70
     1
  0
XRECORD
  5
E76
102
{ACAD_REACTORS
330
E75
102
}
330
E75
100
AcDbXrecord
280
     1
102
RTVSPost2010Prop28
280
     0
102
RTVSPost2010PropOp28
 70
     1
102
RTVSPost2010Prop29
280
     1
102
RTVSPost2010PropOp29
 70
     1
102
RTVSPost2010Prop30
280
     1
102
RTVSPost2010PropOp30
 70
     1
102
RTVSPost2010Prop31
280
     0
102
RTVSPost2010PropOp31
 70
     1
102
RTVSPost2010Prop32
280
     0
102
RTVSPost2010PropOp32
 70
     1
102
RTVSPost2010Prop33
280
     0
102
RTVSPost2010PropOp33
 70
     1
102
RTVSPost2010Prop34
280
     0
102
RTVSPost2010PropOp34
 70
     1
102
RTVSPost2010Prop35
280
     0
102
RTVSPost2010PropOp35
 70
     1
102
RTVSPost2010Prop36
280
     0
102
RTVSPost2010PropOp36
 70
     1
102
RTVSPost2010Prop37
 90
       50
102
RTVSPost2010PropOp37
 70
     1
102
RTVSPost2010Prop38
140
0.0
102
RTVSPost2010PropOp38
 70
     1
102
RTVSPost2010Prop39
140
1.0
102
RTVSPost2010PropOp39
 70
     1
102
RTVSPost2010Prop40
 90
        0
102
RTVSPost2010PropOp40
 70
     1
102
RTVSPost2010Prop41ColorIndex
 90
       18
102
RTVSPost2010Prop41ColorRGB
 90
        0
102
RTVSPost2010PropOp41
 70
     1
102
RTVSPost2010Prop42
 90
       50
102
RTVSPost2010PropOp42
 70
     1
102
RTVSPost2010Prop43
 90
        3
102
RTVSPost2010PropOp43
 70
     1
102
RTVSPost2010Prop44ColorIndex
 90
        5
102
RTVSPost2010Prop44ColorRGB
 90
      255
102
RTVSPost2010PropOp44
 70
     1
102
RTVSPost2010Prop45
280
     0
102
RTVSPost2010PropOp45
 70
     1
102
RTVSPost2010Prop46
 90
       50
102
RTVSPost2010PropOp46
 70
     1
102
RTVSPost2010Prop47
 90
       50
102
RTVSPost2010PropOp47
 70
     1
102
RTVSPost2010Prop48
 90
       50
102
RTVSPost2010PropOp48
 70
     1
102
RTVSPost2010Prop49
280
     0
102
RTVSPost2010PropOp49
 70
     1
102
RTVSPost2010Prop50
 90
       50
102
RTVSPost2010PropOp50
 70
     1
102
RTVSPost2010Prop51ColorIndex
 90
      256
102
RTVSPost2010Prop51ColorRGB
 90
-16777216
102
RTVSPost2010PropOp51
 70
     0
102
RTVSPost2010Prop52
140
1.0
102
RTVSPost2010PropOp52
 70
     0
102
RTVSPost2010Prop53
 90
        2
102
RTVSPost2010PropOp53
 70
     1
102
RTVSPost2010Prop54
  1
strokes_ogs.tif
102
RTVSPost2010PropOp54
 70
     1
102
RTVSPost2010Prop55
280
     0
102
RTVSPost2010PropOp55
 70
     1
102
RTVSPost2010Prop56
140
1.0
102
RTVSPost2010PropOp56
 70
     1
102
RTVSPost2010Prop57
140
1.0
102
RTVSPost2010PropOp57
 70
     1
  0
XRECORD
  5
E78
102
{ACAD_REACTORS
330
E77
102
}
330
E77
100
AcDbXrecord
280
     1
102
RTVSPost2010Prop28
280
     0
102
RTVSPost2010PropOp28
 70
     1
102
RTVSPost2010Prop29
280
     1
102
RTVSPost2010PropOp29
 70
     1
102
RTVSPost2010Prop30
280
     1
102
RTVSPost2010PropOp30
 70
     1
102
RTVSPost2010Prop31
280
     0
102
RTVSPost2010PropOp31
 70
     1
102
RTVSPost2010Prop32
280
     0
102
RTVSPost2010PropOp32
 70
     1
102
RTVSPost2010Prop33
280
     0
102
RTVSPost2010PropOp33
 70
     1
102
RTVSPost2010Prop34
280
     0
102
RTVSPost2010PropOp34
 70
     1
102
RTVSPost2010Prop35
280
     0
102
RTVSPost2010PropOp35
 70
     1
102
RTVSPost2010Prop36
280
     0
102
RTVSPost2010PropOp36
 70
     1
102
RTVSPost2010Prop37
 90
       50
102
RTVSPost2010PropOp37
 70
     1
102
RTVSPost2010Prop38
140
0.0
102
RTVSPost2010PropOp38
 70
     1
102
RTVSPost2010Prop39
140
1.0
102
RTVSPost2010PropOp39
 70
     1
102
RTVSPost2010Prop40
 90
        0
102
RTVSPost2010PropOp40
 70
     1
102
RTVSPost2010Prop41ColorIndex
 90
       18
102
RTVSPost2010Prop41ColorRGB
 90
        0
102
RTVSPost2010PropOp41
 70
     1
102
RTVSPost2010Prop42
 90
       50
102
RTVSPost2010PropOp42
 70
     1
102
RTVSPost2010Prop43
 90
        3
102
RTVSPost2010PropOp43
 70
     1
102
RTVSPost2010Prop44ColorIndex
 90
        5
102
RTVSPost2010Prop44ColorRGB
 90
      255
102
RTVSPost2010PropOp44
 70
     1
102
RTVSPost2010Prop45
280
     0
102
RTVSPost2010PropOp45
 70
     1
102
RTVSPost2010Prop46
 90
       50
102
RTVSPost2010PropOp46
 70
     1
102
RTVSPost2010Prop47
 90
       50
102
RTVSPost2010PropOp47
 70
     1
102
RTVSPost2010Prop48
 90
       50
102
RTVSPost2010PropOp48
 70
     1
102
RTVSPost2010Prop49
280
     0
102
RTVSPost2010PropOp49
 70
     1
102
RTVSPost2010Prop50
 90
       50
102
RTVSPost2010PropOp50
 70
     1
102
RTVSPost2010Prop51ColorIndex
 90
      256
102
RTVSPost2010Prop51ColorRGB
 90
-16777216
102
RTVSPost2010PropOp51
 70
     0
102
RTVSPost2010Prop52
140
1.0
102
RTVSPost2010PropOp52
 70
     0
102
RTVSPost2010Prop53
 90
        2
102
RTVSPost2010PropOp53
 70
     1
102
RTVSPost2010Prop54
  1
strokes_ogs.tif
102
RTVSPost2010PropOp54
 70
     1
102
RTVSPost2010Prop55
280
     0
102
RTVSPost2010PropOp55
 70
     1
102
RTVSPost2010Prop56
140
1.0
102
RTVSPost2010PropOp56
 70
     1
102
RTVSPost2010Prop57
140
1.0
102
RTVSPost2010PropOp57
 70
     1
  0
XRECORD
  5
E68
102
{ACAD_REACTORS
330
E67
102
}
330
E67
100
AcDbXrecord
280
     1
102
RTVSPost2010Prop28
280
     0
102
RTVSPost2010PropOp28
 70
     1
102
RTVSPost2010Prop29
280
     1
102
RTVSPost2010PropOp29
 70
     1
102
RTVSPost2010Prop30
280
     1
102
RTVSPost2010PropOp30
 70
     1
102
RTVSPost2010Prop31
280
     0
102
RTVSPost2010PropOp31
 70
     1
102
RTVSPost2010Prop32
280
     0
102
RTVSPost2010PropOp32
 70
     1
102
RTVSPost2010Prop33
280
     0
102
RTVSPost2010PropOp33
 70
     1
102
RTVSPost2010Prop34
280
     0
102
RTVSPost2010PropOp34
 70
     1
102
RTVSPost2010Prop35
280
     0
102
RTVSPost2010PropOp35
 70
     1
102
RTVSPost2010Prop36
280
     0
102
RTVSPost2010PropOp36
 70
     1
102
RTVSPost2010Prop37
 90
       50
102
RTVSPost2010PropOp37
 70
     1
102
RTVSPost2010Prop38
140
0.0
102
RTVSPost2010PropOp38
 70
     1
102
RTVSPost2010Prop39
140
1.0
102
RTVSPost2010PropOp39
 70
     1
102
RTVSPost2010Prop40
 90
        0
102
RTVSPost2010PropOp40
 70
     1
102
RTVSPost2010Prop41ColorIndex
 90
       18
102
RTVSPost2010Prop41ColorRGB
 90
        0
102
RTVSPost2010PropOp41
 70
     1
102
RTVSPost2010Prop42
 90
       50
102
RTVSPost2010PropOp42
 70
     1
102
RTVSPost2010Prop43
 90
        3
102
RTVSPost2010PropOp43
 70
     1
102
RTVSPost2010Prop44ColorIndex
 90
        5
102
RTVSPost2010Prop44ColorRGB
 90
      255
102
RTVSPost2010PropOp44
 70
     1
102
RTVSPost2010Prop45
280
     0
102
RTVSPost2010PropOp45
 70
     1
102
RTVSPost2010Prop46
 90
       50
102
RTVSPost2010PropOp46
 70
     1
102
RTVSPost2010Prop47
 90
       50
102
RTVSPost2010PropOp47
 70
     1
102
RTVSPost2010Prop48
 90
       50
102
RTVSPost2010PropOp48
 70
     1
102
RTVSPost2010Prop49
280
     0
102
RTVSPost2010PropOp49
 70
     1
102
RTVSPost2010Prop50
 90
       50
102
RTVSPost2010PropOp50
 70
     1
102
RTVSPost2010Prop51ColorIndex
 90
      256
102
RTVSPost2010Prop51ColorRGB
 90
-16777216
102
RTVSPost2010PropOp51
 70
     0
102
RTVSPost2010Prop52
140
1.0
102
RTVSPost2010PropOp52
 70
     0
102
RTVSPost2010Prop53
 90
        2
102
RTVSPost2010PropOp53
 70
     1
102
RTVSPost2010Prop54
  1
strokes_ogs.tif
102
RTVSPost2010PropOp54
 70
     1
102
RTVSPost2010Prop55
280
     0
102
RTVSPost2010PropOp55
 70
     1
102
RTVSPost2010Prop56
140
1.0
102
RTVSPost2010PropOp56
 70
     1
102
RTVSPost2010Prop57
140
1.0
102
RTVSPost2010PropOp57
 70
     1
  0
XRECORD
  5
E5A
102
{ACAD_REACTORS
330
E59
102
}
330
E59
100
AcDbXrecord
280
     1
102
RTVSPost2010Prop28
280
     0
102
RTVSPost2010PropOp28
 70
     1
102
RTVSPost2010Prop29
280
     1
102
RTVSPost2010PropOp29
 70
     1
102
RTVSPost2010Prop30
280
     1
102
RTVSPost2010PropOp30
 70
     1
102
RTVSPost2010Prop31
280
     0
102
RTVSPost2010PropOp31
 70
     1
102
RTVSPost2010Prop32
280
     0
102
RTVSPost2010PropOp32
 70
     1
102
RTVSPost2010Prop33
280
     0
102
RTVSPost2010PropOp33
 70
     1
102
RTVSPost2010Prop34
280
     0
102
RTVSPost2010PropOp34
 70
     1
102
RTVSPost2010Prop35
280
     0
102
RTVSPost2010PropOp35
 70
     1
102
RTVSPost2010Prop36
280
     0
102
RTVSPost2010PropOp36
 70
     1
102
RTVSPost2010Prop37
 90
       50
102
RTVSPost2010PropOp37
 70
     1
102
RTVSPost2010Prop38
140
0.0
102
RTVSPost2010PropOp38
 70
     1
102
RTVSPost2010Prop39
140
1.0
102
RTVSPost2010PropOp39
 70
     1
102
RTVSPost2010Prop40
 90
        0
102
RTVSPost2010PropOp40
 70
     1
102
RTVSPost2010Prop41ColorIndex
 90
       18
102
RTVSPost2010Prop41ColorRGB
 90
        0
102
RTVSPost2010PropOp41
 70
     1
102
RTVSPost2010Prop42
 90
       50
102
RTVSPost2010PropOp42
 70
     1
102
RTVSPost2010Prop43
 90
        3
102
RTVSPost2010PropOp43
 70
     1
102
RTVSPost2010Prop44ColorIndex
 90
        5
102
RTVSPost2010Prop44ColorRGB
 90
      255
102
RTVSPost2010PropOp44
 70
     1
102
RTVSPost2010Prop45
280
     0
102
RTVSPost2010PropOp45
 70
     1
102
RTVSPost2010Prop46
 90
       50
102
RTVSPost2010PropOp46
 70
     1
102
RTVSPost2010Prop47
 90
       50
102
RTVSPost2010PropOp47
 70
     1
102
RTVSPost2010Prop48
 90
       50
102
RTVSPost2010PropOp48
 70
     1
102
RTVSPost2010Prop49
280
     0
102
RTVSPost2010PropOp49
 70
     1
102
RTVSPost2010Prop50
 90
       50
102
RTVSPost2010PropOp50
 70
     1
102
RTVSPost2010Prop51ColorIndex
 90
      256
102
RTVSPost2010Prop51ColorRGB
 90
-16777216
102
RTVSPost2010PropOp51
 70
     0
102
RTVSPost2010Prop52
140
1.0
102
RTVSPost2010PropOp52
 70
     0
102
RTVSPost2010Prop53
 90
        2
102
RTVSPost2010PropOp53
 70
     1
102
RTVSPost2010Prop54
  1
strokes_ogs.tif
102
RTVSPost2010PropOp54
 70
     1
102
RTVSPost2010Prop55
280
     0
102
RTVSPost2010PropOp55
 70
     1
102
RTVSPost2010Prop56
140
1.0
102
RTVSPost2010PropOp56
 70
     1
102
RTVSPost2010Prop57
140
1.0
102
RTVSPost2010PropOp57
 70
     1
  0
XRECORD
  5
E7A
102
{ACAD_REACTORS
330
E79
102
}
330
E79
100
AcDbXrecord
280
     1
102
RTVSPost2010Prop28
280
     0
102
RTVSPost2010PropOp28
 70
     1
102
RTVSPost2010Prop29
280
     1
102
RTVSPost2010PropOp29
 70
     1
102
RTVSPost2010Prop30
280
     1
102
RTVSPost2010PropOp30
 70
     1
102
RTVSPost2010Prop31
280
     0
102
RTVSPost2010PropOp31
 70
     1
102
RTVSPost2010Prop32
280
     0
102
RTVSPost2010PropOp32
 70
     1
102
RTVSPost2010Prop33
280
     0
102
RTVSPost2010PropOp33
 70
     1
102
RTVSPost2010Prop34
280
     0
102
RTVSPost2010PropOp34
 70
     1
102
RTVSPost2010Prop35
280
     0
102
RTVSPost2010PropOp35
 70
     1
102
RTVSPost2010Prop36
280
     0
102
RTVSPost2010PropOp36
 70
     1
102
RTVSPost2010Prop37
 90
       50
102
RTVSPost2010PropOp37
 70
     1
102
RTVSPost2010Prop38
140
0.0
102
RTVSPost2010PropOp38
 70
     1
102
RTVSPost2010Prop39
140
1.0
102
RTVSPost2010PropOp39
 70
     1
102
RTVSPost2010Prop40
 90
        0
102
RTVSPost2010PropOp40
 70
     1
102
RTVSPost2010Prop41ColorIndex
 90
       18
102
RTVSPost2010Prop41ColorRGB
 90
        0
102
RTVSPost2010PropOp41
 70
     1
102
RTVSPost2010Prop42
 90
       50
102
RTVSPost2010PropOp42
 70
     1
102
RTVSPost2010Prop43
 90
        3
102
RTVSPost2010PropOp43
 70
     1
102
RTVSPost2010Prop44ColorIndex
 90
        5
102
RTVSPost2010Prop44ColorRGB
 90
      255
102
RTVSPost2010PropOp44
 70
     1
102
RTVSPost2010Prop45
280
     0
102
RTVSPost2010PropOp45
 70
     1
102
RTVSPost2010Prop46
 90
       50
102
RTVSPost2010PropOp46
 70
     1
102
RTVSPost2010Prop47
 90
       50
102
RTVSPost2010PropOp47
 70
     1
102
RTVSPost2010Prop48
 90
       50
102
RTVSPost2010PropOp48
 70
     1
102
RTVSPost2010Prop49
280
     0
102
RTVSPost2010PropOp49
 70
     1
102
RTVSPost2010Prop50
 90
       50
102
RTVSPost2010PropOp50
 70
     1
102
RTVSPost2010Prop51ColorIndex
 90
      256
102
RTVSPost2010Prop51ColorRGB
 90
-16777216
102
RTVSPost2010PropOp51
 70
     0
102
RTVSPost2010Prop52
140
1.0
102
RTVSPost2010PropOp52
 70
     0
102
RTVSPost2010Prop53
 90
        2
102
RTVSPost2010PropOp53
 70
     1
102
RTVSPost2010Prop54
  1
strokes_ogs.tif
102
RTVSPost2010PropOp54
 70
     1
102
RTVSPost2010Prop55
280
     0
102
RTVSPost2010PropOp55
 70
     1
102
RTVSPost2010Prop56
140
1.0
102
RTVSPost2010PropOp56
 70
     1
102
RTVSPost2010Prop57
140
1.0
102
RTVSPost2010PropOp57
 70
     1
  0
ENDSEC
  0
EOF
