  0
SECTION
  2
HEADER
  9
$ACADVER
  1
AC1024
  9
$ACADMAINTVER
 70
     6
  9
$DWGCODEPAGE
  3
ASCII
  9
$INSBASE
 10
0.0
 20
0.0
 30
0.0
  9
$EXTMIN
 10
1.000000000000000E+20
 20
1.000000000000000E+20
 30
1.000000000000000E+20
  9
$EXTMAX
 10
-1.000000000000000E+20
 20
-1.000000000000000E+20
 30
-1.000000000000000E+20
  9
$LIMMIN
 10
0.0
 20
0.0
  9
$LIMMAX
 10
12.0
 20
9.0
  9
$ORTHOMODE
 70
     0
  9
$REGENMODE
 70
     1
  9
$FILLMODE
 70
     1
  9
$QTEXTMODE
 70
     0
  9
$MIRRTEXT
 70
     1
  9
$LTSCALE
 40
1.0
  9
$ATTMODE
 70
     1
  9
$TEXTSIZE
 40
2.5
  9
$TRACEWID
 40
0.05
  9
$TEXTSTYLE
  7
Standard
  9
$CLAYER
  8
0
  9
$CELTYPE
  6
ByLayer
  9
$CECOLOR
 62
   178
  9
$CELTSCALE
 40
1.0
  9
$DISPSILH
 70
     0
  9
$DIMSCALE
 40
1.0
  9
$DIMASZ
 40
2.5
  9
$DIMEXO
 40
0.625
  9
$DIMDLI
 40
0.38
  9
$DIMRND
 40
0.0
  9
$DIMDLE
 40
0.0
  9
$DIMEXE
 40
1.25
  9
$DIMTP
 40
0.0
  9
$DIMTM
 40
0.0
  9
$DIMTXT
 40
2.5
  9
$DIMCEN
 40
0.09
  9
$DIMTSZ
 40
0.0
  9
$DIMTOL
 70
     0
  9
$DIMLIM
 70
     0
  9
$DIMTIH
 70
     1
  9
$DIMTOH
 70
     1
  9
$DIMSE1
 70
     0
  9
$DIMSE2
 70
     0
  9
$DIMTAD
 70
     0
  9
$DIMZIN
 70
     8
  9
$DIMBLK
  1

  9
$DIMASO
 70
     1
  9
$DIMSHO
 70
     1
  9
$DIMPOST
  1

  9
$DIMAPOST
  1

  9
$DIMALT
 70
     0
  9
$DIMALTD
 70
     2
  9
$DIMALTF
 40
25.4
  9
$DIMLFAC
 40
1.0
  9
$DIMTOFL
 70
     0
  9
$DIMTVP
 40
0.0
  9
$DIMTIX
 70
     0
  9
$DIMSOXD
 70
     0
  9
$DIMSAH
 70
     0
  9
$DIMBLK1
  1

  9
$DIMBLK2
  1

  9
$DIMSTYLE
  2
Standard
  9
$DIMCLRD
 70
   178
  9
$DIMCLRE
 70
   178
  9
$DIMCLRT
 70
   178
  9
$DIMTFAC
 40
1.0
  9
$DIMGAP
 40
0.625
  9
$DIMJUST
 70
     0
  9
$DIMSD1
 70
     0
  9
$DIMSD2
 70
     0
  9
$DIMTOLJ
 70
     1
  9
$DIMTZIN
 70
     0
  9
$DIMALTZ
 70
     0
  9
$DIMALTTZ
 70
     0
  9
$DIMUPT
 70
     0
  9
$DIMDEC
 70
     4
  9
$DIMTDEC
 70
     4
  9
$DIMALTU
 70
     2
  9
$DIMALTTD
 70
     2
  9
$DIMTXSTY
  7
Standard
  9
$DIMAUNIT
 70
     0
  9
$DIMADEC
 70
     2
  9
$DIMALTRND
 40
0.0
  9
$DIMAZIN
 70
     0
  9
$DIMDSEP
 70
    46
  9
$DIMATFIT
 70
     3
  9
$DIMFRAC
 70
     0
  9
$DIMLDRBLK
  1

  9
$DIMLUNIT
 70
     2
  9
$DIMLWD
 70
    -2
  9
$DIMLWE
 70
    -2
  9
$DIMTMOVE
 70
     0
  9
$DIMFXL
 40
1.0
  9
$DIMFXLON
 70
     0
  9
$DIMJOGANG
 40
0.7853981633974483
  9
$DIMTFILL
 70
     0
  9
$DIMTFILLCLR
 70
     0
  9
$DIMARCSYM
 70
     0
  9
$DIMLTYPE
  6

  9
$DIMLTEX1
  6

  9
$DIMLTEX2
  6

  9
$DIMTXTDIRECTION
 70
     0
  9
$LUNITS
 70
     2
  9
$LUPREC
 70
     4
  9
$SKETCHINC
 40
0.1
  9
$FILLETRAD
 40
0.5
  9
$AUNITS
 70
     0
  9
$AUPREC
 70
     2
  9
$MENU
  1
.
  9
$ELEVATION
 40
0.0
  9
$PELEVATION
 40
0.0
  9
$THICKNESS
 40
0.0
  9
$LIMCHECK
 70
     0
  9
$CHAMFERA
 40
0.5
  9
$CHAMFERB
 40
0.5
  9
$CHAMFERC
 40
1.0
  9
$CHAMFERD
 40
0.0
  9
$SKPOLY
 70
     0
  9
$TDCREATE
 40
2456437.751736099
  9
$TDUCREATE
 40
2456437.710069444
  9
$TDUPDATE
 40
2456437.751736099
  9
$TDUUPDATE
 40
2456437.710069444
  9
$TDINDWG
 40
0.0000000116
  9
$TDUSRTIMER
 40
0.0000000116
  9
$USRTIMER
 70
     1
  9
$ANGBASE
 50
0.0
  9
$ANGDIR
 70
     0
  9
$PDMODE
 70
     0
  9
$PDSIZE
 40
0.0
  9
$PLINEWID
 40
0.0
  9
$SPLFRAME
 70
     0
  9
$SPLINETYPE
 70
     6
  9
$SPLINESEGS
 70
     8
  9
$HANDSEED
  5
18E
  9
$SURFTAB1
 70
     6
  9
$SURFTAB2
 70
     6
  9
$SURFTYPE
 70
     6
  9
$SURFU
 70
     6
  9
$SURFV
 70
     6
  9
$UCSBASE
  2

  9
$UCSNAME
  2

  9
$UCSORG
 10
0.0
 20
0.0
 30
0.0
  9
$UCSXDIR
 10
1.0
 20
0.0
 30
0.0
  9
$UCSYDIR
 10
0.0
 20
1.0
 30
0.0
  9
$UCSORTHOREF
  2

  9
$UCSORTHOVIEW
 70
     0
  9
$UCSORGTOP
 10
0.0
 20
0.0
 30
0.0
  9
$UCSORGBOTTOM
 10
0.0
 20
0.0
 30
0.0
  9
$UCSORGLEFT
 10
0.0
 20
0.0
 30
0.0
  9
$UCSORGRIGHT
 10
0.0
 20
0.0
 30
0.0
  9
$UCSORGFRONT
 10
0.0
 20
0.0
 30
0.0
  9
$UCSORGBACK
 10
0.0
 20
0.0
 30
0.0
  9
$PUCSBASE
  2

  9
$PUCSNAME
  2

  9
$PUCSORG
 10
0.0
 20
0.0
 30
0.0
  9
$PUCSXDIR
 10
1.0
 20
0.0
 30
0.0
  9
$PUCSYDIR
 10
0.0
 20
1.0
 30
0.0
  9
$PUCSORTHOREF
  2

  9
$PUCSORTHOVIEW
 70
     0
  9
$PUCSORGTOP
 10
0.0
 20
0.0
 30
0.0
  9
$PUCSORGBOTTOM
 10
0.0
 20
0.0
 30
0.0
  9
$PUCSORGLEFT
 10
0.0
 20
0.0
 30
0.0
  9
$PUCSORGRIGHT
 10
0.0
 20
0.0
 30
0.0
  9
$PUCSORGFRONT
 10
0.0
 20
0.0
 30
0.0
  9
$PUCSORGBACK
 10
0.0
 20
0.0
 30
0.0
  9
$USERI1
 70
     0
  9
$USERI2
 70
     0
  9
$USERI3
 70
     0
  9
$USERI4
 70
     0
  9
$USERI5
 70
     0
  9
$USERR1
 40
0.0
  9
$USERR2
 40
0.0
  9
$USERR3
 40
0.0
  9
$USERR4
 40
0.0
  9
$USERR5
 40
0.0
  9
$WORLDVIEW
 70
     1
  9
$SHADEDGE
 70
     3
  9
$SHADEDIF
 70
    70
  9
$TILEMODE
 70
     1
  9
$MAXACTVP
 70
    64
  9
$PINSBASE
 10
13.43213728549139
 20
-25.88143525741032
 30
0.0
  9
$PLIMCHECK
 70
     0
  9
$PEXTMIN
 10
1.000000000000000E+20
 20
1.000000000000000E+20
 30
1.000000000000000E+20
  9
$PEXTMAX
 10
-1.000000000000000E+20
 20
-1.000000000000000E+20
 30
-1.000000000000000E+20
  9
$PLIMMIN
 10
0.0
 20
0.0
  9
$PLIMMAX
 10
297.0
 20
210.0
  9
$UNITMODE
 70
     0
  9
$VISRETAIN
 70
     1
  9
$PLINEGEN
 70
     0
  9
$PSLTSCALE
 70
     1
  9
$TREEDEPTH
 70
  3020
  9
$CMLSTYLE
  2
Standard
  9
$CMLJUST
 70
     0
  9
$CMLSCALE
 40
1.0
  9
$PROXYGRAPHICS
 70
     1
  9
$MEASUREMENT
 70
     1
  9
$CELWEIGHT
370
    -1
  9
$ENDCAPS
280
     0
  9
$JOINSTYLE
280
     0
  9
$LWDISPLAY
290
     0
  9
$INSUNITS
 70
     4
  9
$HYPERLINKBASE
  1

  9
$STYLESHEET
  1

  9
$XEDIT
290
     1
  9
$CEPSNTYPE
380
     0
  9
$PSTYLEMODE
290
     1
  9
$FINGERPRINTGUID
  2
{A8478CA1-6F2A-49C1-0F41-28A53EA8963F}
  9
$VERSIONGUID
  2
{FAEB1C32-E019-11D5-929B-00C0DF256EC4}
  9
$EXTNAMES
290
     1
  9
$PSVPSCALE
 40
0.0
  9
$OLESTARTUP
290
     0
  9
$SORTENTS
280
   127
  9
$INDEXCTL
280
     0
  9
$HIDETEXT
280
     1
  9
$XCLIPFRAME
280
     2
  9
$HALOGAP
280
     0
  9
$OBSCOLOR
 70
   257
  9
$OBSLTYPE
280
     0
  9
$INTERSECTIONDISPLAY
280
     0
  9
$INTERSECTIONCOLOR
 70
   257
  9
$DIMASSOC
280
     2
  9
$PROJECTNAME
  1

  9
$CAMERADISPLAY
290
     0
  9
$LENSLENGTH
 40
50.0
  9
$CAMERAHEIGHT
 40
0.0
  9
$STEPSPERSEC
 40
2.0
  9
$STEPSIZE
 40
6.0
  9
$3DDWFPREC
 40
2.0
  9
$PSOLWIDTH
 40
0.25
  9
$PSOLHEIGHT
 40
4.0
  9
$LOFTANG1
 40
1.570796326794897
  9
$LOFTANG2
 40
1.570796326794897
  9
$LOFTMAG1
 40
0.0
  9
$LOFTMAG2
 40
0.0
  9
$LOFTPARAM
 70
     7
  9
$LOFTNORMALS
280
     1
  9
$LATITUDE
 40
37.795
  9
$LONGITUDE
 40
-122.394
  9
$NORTHDIRECTION
 40
0.0
  9
$TIMEZONE
 70
 -8000
  9
$LIGHTGLYPHDISPLAY
280
     1
  9
$TILEMODELIGHTSYNCH
280
     1
  9
$SOLIDHIST
280
     1
  9
$SHOWHIST
280
     1
  9
$DWFFRAME
280
     2
  9
$DGNFRAME
280
     2
  9
$REALWORLDSCALE
290
     1
  9
$INTERFERECOLOR
 62
   256
  9
$CSHADOW
280
     0
  9
$SHADOWPLANELOCATION
 40
0.0
  0
ENDSEC
  0
SECTION
  2
CLASSES
  0
CLASS
  1
ACDBDICTIONARYWDFLT
  2
AcDbDictionaryWithDefault
  3
ObjectDBX Classes
 90
        0
 91
        4
280
     0
281
     0
  0
CLASS
  1
VISUALSTYLE
  2
AcDbVisualStyle
  3
ObjectDBX Classes
 90
     4095
 91
        4
280
     0
281
     0
  0
CLASS
  1
MATERIAL
  2
AcDbMaterial
  3
ObjectDBX Classes
 90
     1153
 91
        4
280
     0
281
     0
  0
ENDSEC
  0
SECTION
  2
TABLES
  0
TABLE
  2
VPORT
  5
127
330
0
100
AcDbSymbolTable
 70
     1
  0
VPORT
  5
147
330
127
100
AcDbSymbolTableRecord
100
AcDbViewportTableRecord
  2
*Active
 70
     0
 10
0.0
 20
0.0
 11
1.0
 21
1.0
 12
10.42990654205607
 22
4.5
 13
0.0
 23
0.0
 14
0.5
 24
0.5
 15
0.5
 25
0.5
 16
0.0
 26
0.0
 36
1.0
 17
0.0
 27
0.0
 37
0.0
 40
9.0
 41
1.972972972850329
 42
50.0
 43
0.0
 44
0.0
 50
0.0
 51
0.0
 71
     0
 72
   100
 73
     1
 74
     3
 75
     0
 76
     0
 77
     0
 78
     0
281
     0
 65
     1
110
0.0
120
0.0
130
0.0
111
1.0
121
0.0
131
0.0
112
0.0
122
1.0
132
0.0
 79
     0
146
0.0
 60
     3
 61
     5
292
     1
282
     1
141
0.0
142
0.0
 63
   250
  0
ENDTAB
  0
TABLE
  2
LTYPE
  5
124
330
0
100
AcDbSymbolTable
 70
    19
  0
LTYPE
  5
132
330
124
100
AcDbSymbolTableRecord
100
AcDbLinetypeTableRecord
  2
ByBlock
 70
     0
  3

 72
    65
 73
     0
 40
0.0
  0
LTYPE
  5
133
330
124
100
AcDbSymbolTableRecord
100
AcDbLinetypeTableRecord
  2
ByLayer
 70
     0
  3

 72
    65
 73
     0
 40
0.0
  0
LTYPE
  5
134
330
124
100
AcDbSymbolTableRecord
100
AcDbLinetypeTableRecord
  2
Continuous
 70
     0
  3
Solid line
 72
    65
 73
     0
 40
0.0
  0
LTYPE
  5
174
330
124
100
AcDbSymbolTableRecord
100
AcDbLinetypeTableRecord
  2
BORDER
 70
     0
  3

 72
    65
 73
     6
 40
42.0
 49
12.0
 74
     0
 49
-6.0
 74
     0
 49
12.0
 74
     0
 49
-5.95
 74
     0
 49
0.1
 74
     0
 49
-5.95
 74
     0
  0
LTYPE
  5
175
330
124
100
AcDbSymbolTableRecord
100
AcDbLinetypeTableRecord
  2
BORDER2
 70
     0
  3

 72
    65
 73
     6
 40
21.0
 49
6.0
 74
     0
 49
-3.0
 74
     0
 49
6.0
 74
     0
 49
-2.95
 74
     0
 49
0.1
 74
     0
 49
-2.95
 74
     0
  0
LTYPE
  5
176
330
124
100
AcDbSymbolTableRecord
100
AcDbLinetypeTableRecord
  2
BORDERX2
 70
     0
  3

 72
    65
 73
     6
 40
84.0
 49
24.0
 74
     0
 49
-12.0
 74
     0
 49
24.0
 74
     0
 49
-11.95
 74
     0
 49
0.1
 74
     0
 49
-11.95
 74
     0
  0
LTYPE
  5
177
330
124
100
AcDbSymbolTableRecord
100
AcDbLinetypeTableRecord
  2
CENTER
 70
     0
  3

 72
    65
 73
     4
 40
50.0
 49
32.0
 74
     0
 49
-6.0
 74
     0
 49
6.0
 74
     0
 49
-6.0
 74
     0
  0
LTYPE
  5
178
330
124
100
AcDbSymbolTableRecord
100
AcDbLinetypeTableRecord
  2
CENTER2
 70
     0
  3

 72
    65
 73
     4
 40
25.0
 49
16.0
 74
     0
 49
-3.0
 74
     0
 49
3.0
 74
     0
 49
-3.0
 74
     0
  0
LTYPE
  5
179
330
124
100
AcDbSymbolTableRecord
100
AcDbLinetypeTableRecord
  2
CENTERX2
 70
     0
  3

 72
    65
 73
     4
 40
100.0
 49
64.0
 74
     0
 49
-12.0
 74
     0
 49
12.0
 74
     0
 49
-12.0
 74
     0
  0
LTYPE
  5
17A
330
124
100
AcDbSymbolTableRecord
100
AcDbLinetypeTableRecord
  2
DASHDOT
 70
     0
  3

 72
    65
 73
     4
 40
24.0
 49
12.0
 74
     0
 49
-5.95
 74
     0
 49
0.1
 74
     0
 49
-5.95
 74
     0
  0
LTYPE
  5
17B
330
124
100
AcDbSymbolTableRecord
100
AcDbLinetypeTableRecord
  2
DASHDOT2
 70
     0
  3

 72
    65
 73
     4
 40
12.0
 49
6.0
 74
     0
 49
-2.95
 74
     0
 49
0.1
 74
     0
 49
-2.95
 74
     0
  0
LTYPE
  5
17C
330
124
100
AcDbSymbolTableRecord
100
AcDbLinetypeTableRecord
  2
DASHDOTX2
 70
     0
  3

 72
    65
 73
     4
 40
48.0
 49
24.0
 74
     0
 49
-11.95
 74
     0
 49
0.1
 74
     0
 49
-11.95
 74
     0
  0
LTYPE
  5
17D
330
124
100
AcDbSymbolTableRecord
100
AcDbLinetypeTableRecord
  2
DASHED
 70
     0
  3

 72
    65
 73
     2
 40
18.0
 49
12.0
 74
     0
 49
-6.0
 74
     0
  0
LTYPE
  5
17E
330
124
100
AcDbSymbolTableRecord
100
AcDbLinetypeTableRecord
  2
DASHED2
 70
     0
  3

 72
    65
 73
     2
 40
9.0
 49
6.0
 74
     0
 49
-3.0
 74
     0
  0
LTYPE
  5
17F
330
124
100
AcDbSymbolTableRecord
100
AcDbLinetypeTableRecord
  2
DASHEDX2
 70
     0
  3

 72
    65
 73
     2
 40
36.0
 49
24.0
 74
     0
 49
-12.0
 74
     0
  0
LTYPE
  5
180
330
124
100
AcDbSymbolTableRecord
100
AcDbLinetypeTableRecord
  2
DIVIDE
 70
     0
  3

 72
    65
 73
     6
 40
30.0
 49
12.0
 74
     0
 49
-5.9
 74
     0
 49
0.15
 74
     0
 49
-5.9
 74
     0
 49
0.15
 74
     0
 49
-5.9
 74
     0
  0
LTYPE
  5
181
330
124
100
AcDbSymbolTableRecord
100
AcDbLinetypeTableRecord
  2
DIVIDE2
 70
     0
  3

 72
    65
 73
     6
 40
15.0
 49
6.0
 74
     0
 49
-2.9
 74
     0
 49
0.15
 74
     0
 49
-2.9
 74
     0
 49
0.15
 74
     0
 49
-2.9
 74
     0
  0
LTYPE
  5
182
330
124
100
AcDbSymbolTableRecord
100
AcDbLinetypeTableRecord
  2
DIVIDEX2
 70
     0
  3

 72
    65
 73
     6
 40
60.0
 49
24.0
 74
     0
 49
-11.9
 74
     0
 49
0.15
 74
     0
 49
-11.9
 74
     0
 49
0.15
 74
     0
 49
-11.9
 74
     0
  0
LTYPE
  5
183
330
124
100
AcDbSymbolTableRecord
100
AcDbLinetypeTableRecord
  2
DOT
 70
     0
  3

 72
    65
 73
     2
 40
6.3
 49
0.1
 74
     0
 49
-6.2
 74
     0
  0
LTYPE
  5
184
330
124
100
AcDbSymbolTableRecord
100
AcDbLinetypeTableRecord
  2
DOT2
 70
     0
  3

 72
    65
 73
     2
 40
3.2
 49
0.1
 74
     0
 49
-3.1
 74
     0
  0
LTYPE
  5
185
330
124
100
AcDbSymbolTableRecord
100
AcDbLinetypeTableRecord
  2
DOTX2
 70
     0
  3

 72
    65
 73
     2
 40
12.5
 49
0.1
 74
     0
 49
-12.4
 74
     0
  0
ENDTAB
  0
TABLE
  2
LAYER
  5
121
330
0
100
AcDbSymbolTable
 70
     6
  0
LAYER
  5
12F
330
121
100
AcDbSymbolTableRecord
100
AcDbLayerTableRecord
  2
0
 70
     0
 62
   178
420
        0
  6
Continuous
370
    25
390
12E
347
15C
  0
LAYER
  5
186
330
121
100
AcDbSymbolTableRecord
100
AcDbLayerTableRecord
  2
Front
 70
     0
 62
   178
420
        0
  6
Continuous
370
    25
390
12E
347
15C
  0
LAYER
  5
187
330
121
100
AcDbSymbolTableRecord
100
AcDbLayerTableRecord
  2
Back
 70
     0
 62
   178
420
        0
  6
Continuous
370
    25
390
12E
347
15C
  0
LAYER
  5
188
330
121
100
AcDbSymbolTableRecord
100
AcDbLayerTableRecord
  2
Left
 70
     0
 62
   178
420
        0
  6
Continuous
370
    25
390
12E
347
15C
  0
LAYER
  5
189
330
121
100
AcDbSymbolTableRecord
100
AcDbLayerTableRecord
  2
Right
 70
     0
 62
   178
420
        0
  6
Continuous
370
    25
390
12E
347
15C
  0
LAYER
  5
18A
330
121
100
AcDbSymbolTableRecord
100
AcDbLayerTableRecord
  2
7
 70
     1
 62
     4
420
    65535
  6
Continuous
370
    -3
390
12E
347
15C
  0
ENDTAB
  0
TABLE
  2
STYLE
  5
122
330
0
100
AcDbSymbolTable
 70
     2
  0
STYLE
  5
130
330
122
100
AcDbSymbolTableRecord
100
AcDbTextStyleTableRecord
  2
Standard
 70
     0
 40
0.0
 41
1.0
 50
0.0
 71
     0
 42
2.5
  3
txt
  4

  0
STYLE
  5
18B
330
122
100
AcDbSymbolTableRecord
100
AcDbTextStyleTableRecord
  2
textstyle0
 70
     0
 40
0.0
 41
1.0
 50
0.0
 71
     0
 42
0.2
  3
Standard
  4

1001
ACAD
1000
Standard
1071
        0
  0
ENDTAB
  0
TABLE
  2
VIEW
  5
125
330
0
100
AcDbSymbolTable
 70
     0
  0
ENDTAB
  0
TABLE
  2
UCS
  5
126
330
0
100
AcDbSymbolTable
 70
     0
  0
ENDTAB
  0
TABLE
  2
APPID
  5
128
330
0
100
AcDbSymbolTable
 70
     2
  0
APPID
  5
131
330
128
100
AcDbSymbolTableRecord
100
AcDbRegAppTableRecord
  2
ACAD
 70
     0
  0
APPID
  5
15D
330
128
100
AcDbSymbolTableRecord
100
AcDbRegAppTableRecord
  2
QCAD
 70
     0
  0
ENDTAB
  0
TABLE
  2
DIMSTYLE
  5
129
330
0
100
AcDbSymbolTable
 70
     2
100
AcDbDimStyleTable
  0
DIMSTYLE
105
145
330
129
100
AcDbSymbolTableRecord
100
AcDbDimStyleTableRecord
  2
Standard
 70
     0
178
     0
340
130
  0
DIMSTYLE
105
173
330
129
100
AcDbSymbolTableRecord
100
AcDbDimStyleTableRecord
  2
QCADDimStyle
 70
     0
 41
2.5
 42
0.625
 44
1.25
 73
     0
 77
     1
140
2.5
147
0.625
178
     0
340
130
  0
ENDTAB
  0
TABLE
  2
BLOCK_RECORD
  5
120
330
0
100
AcDbSymbolTable
 70
     1
  0
BLOCK_RECORD
  5
13D
330
120
100
AcDbSymbolTableRecord
100
AcDbBlockTableRecord
  2
*Model_Space
340
140
 70
     0
280
     1
281
     0
  0
BLOCK_RECORD
  5
139
330
120
100
AcDbSymbolTableRecord
100
AcDbBlockTableRecord
  2
*Paper_Space
340
13C
 70
     0
280
     1
281
     0
  0
BLOCK_RECORD
  5
141
330
120
100
AcDbSymbolTableRecord
100
AcDbBlockTableRecord
  2
*Paper_Space0
340
144
 70
     0
280
     1
281
     0
  0
ENDTAB
  0
ENDSEC
  0
SECTION
  2
BLOCKS
  0
BLOCK
  5
13E
330
13D
100
AcDbEntity
  8
0
100
AcDbBlockBegin
  2
*Model_Space
 70
     0
 10
0.0
 20
0.0
 30
0.0
  3
*Model_Space
  1

  0
ENDBLK
  5
13F
330
13D
100
AcDbEntity
  8
0
100
AcDbBlockEnd
  0
BLOCK
  5
13A
330
139
100
AcDbEntity
 67
     1
  8
0
100
AcDbBlockBegin
  2
*Paper_Space
 70
     0
 10
0.0
 20
0.0
 30
0.0
  3
*Paper_Space
  1

  0
ENDBLK
  5
13B
330
139
100
AcDbEntity
 67
     1
  8
0
100
AcDbBlockEnd
  0
BLOCK
  5
142
330
141
100
AcDbEntity
  8
0
100
AcDbBlockBegin
  2
*Paper_Space0
 70
     0
 10
0.0
 20
0.0
 30
0.0
  3
*Paper_Space0
  1

  0
ENDBLK
  5
143
330
141
100
AcDbEntity
  8
0
100
AcDbBlockEnd
  0
ENDSEC
  0
SECTION
  2
ENTITIES
  0
LINE
  5
44
330
13D
100
AcDbEntity
  8
Front
370
     0
100
AcDbLine
 10
20.0
 20
39.0
 30
0.0
 11
258.0
 21
39.0
 31
0.0
  0
LINE
  5
45
330
13D
100
AcDbEntity
  8
Front
370
     0
100
AcDbLine
 10
258.0
 20
39.0
 30
0.0
 11
258.0
 21
71.0
 31
0.0
  0
LINE
  5
46
330
13D
100
AcDbEntity
  8
Front
370
     0
100
AcDbLine
 10
258.0
 20
71.0
 30
0.0
 11
20.0
 21
71.0
 31
0.0
  0
LINE
  5
47
330
13D
100
AcDbEntity
  8
Front
370
     0
100
AcDbLine
 10
20.0
 20
71.0
 30
0.0
 11
20.0
 21
39.0
 31
0.0
  0
LINE
  5
48
330
13D
100
AcDbEntity
  8
Back
370
     0
100
AcDbLine
 10
20.0
 20
89.0
 30
0.0
 11
258.0
 21
89.0
 31
0.0
  0
LINE
  5
49
330
13D
100
AcDbEntity
  8
Back
370
     0
100
AcDbLine
 10
258.0
 20
89.0
 30
0.0
 11
258.0
 21
121.0
 31
0.0
  0
LINE
  5
4A
330
13D
100
AcDbEntity
  8
Back
370
     0
100
AcDbLine
 10
258.0
 20
121.0
 30
0.0
 11
20.0
 21
121.0
 31
0.0
  0
LINE
  5
4B
330
13D
100
AcDbEntity
  8
Back
370
     0
100
AcDbLine
 10
20.0
 20
121.0
 30
0.0
 11
20.0
 21
89.0
 31
0.0
  0
LINE
  5
4C
330
13D
100
AcDbEntity
  8
Right
370
     0
100
AcDbLine
 10
20.0
 20
139.0
 30
0.0
 11
160.0
 21
139.0
 31
0.0
  0
LINE
  5
4D
330
13D
100
AcDbEntity
  8
Right
370
     0
100
AcDbLine
 10
160.0
 20
139.0
 30
0.0
 11
160.0
 21
171.0
 31
0.0
  0
LINE
  5
4E
330
13D
100
AcDbEntity
  8
Right
370
     0
100
AcDbLine
 10
160.0
 20
171.0
 30
0.0
 11
20.0
 21
171.0
 31
0.0
  0
LINE
  5
4F
330
13D
100
AcDbEntity
  8
Right
370
     0
100
AcDbLine
 10
20.0
 20
171.0
 30
0.0
 11
20.0
 21
139.0
 31
0.0
  0
LINE
  5
50
330
13D
100
AcDbEntity
  8
Left
370
     0
100
AcDbLine
 10
20.0
 20
189.0
 30
0.0
 11
160.0
 21
189.0
 31
0.0
  0
LINE
  5
51
330
13D
100
AcDbEntity
  8
Left
370
     0
100
AcDbLine
 10
160.0
 20
189.0
 30
0.0
 11
160.0
 21
221.0
 31
0.0
  0
LINE
  5
52
330
13D
100
AcDbEntity
  8
Left
370
     0
100
AcDbLine
 10
160.0
 20
221.0
 30
0.0
 11
20.0
 21
221.0
 31
0.0
  0
LINE
  5
53
330
13D
100
AcDbEntity
  8
Left
370
     0
100
AcDbLine
 10
20.0
 20
221.0
 30
0.0
 11
20.0
 21
189.0
 31
0.0
  0
LINE
  5
58
330
13D
100
AcDbEntity
  8
Left
370
     0
100
AcDbLine
 10
117.4499999998203
 20
211.5
 30
0.0
 11
131.1500000001798
 21
211.4999999999999
 31
0.0
  0
LINE
  5
59
330
13D
100
AcDbEntity
  8
7
100
AcDbLine
 10
109.2980377850001
 20
205.8
 30
0.0
 11
139.3019622149999
 21
205.8
 31
0.0
  0
LINE
  5
5A
330
13D
100
AcDbEntity
  8
7
100
AcDbLine
 10
124.3000000000001
 20
196.8
 30
0.0
 11
124.3000000000001
 21
212.8000000000001
 31
0.0
  0
LINE
  5
5B
330
13D
100
AcDbEntity
  8
Left
370
     0
100
AcDbLine
 10
118.2611041110793
 20
200.1
 30
0.0
 11
130.3388958889208
 21
200.1
 31
0.0
  0
ARC
  5
5C
330
13D
100
AcDbEntity
  8
Left
370
     0
100
AcDbCircle
 10
130.3388958889208
 20
203.5
 30
0.0
 40
3.399999999999999
100
AcDbArc
 50
270.0
 51
349.9999999999993
  0
LINE
  5
5D
330
13D
100
AcDbEntity
  8
Left
370
     0
100
AcDbLine
 10
134.4983463604212
 20
207.5095961959323
 30
0.0
 11
133.6872422491622
 21
202.9095961959324
 31
0.0
  0
ARC
  5
5E
330
13D
100
AcDbEntity
  8
Left
370
     0
100
AcDbCircle
 10
131.1500000001798
 20
208.0999999999999
 30
0.0
 40
3.399999999999999
100
AcDbArc
 50
349.9999999999995
 51
89.99999999999991
  0
ARC
  5
5F
330
13D
100
AcDbEntity
  8
Left
370
     0
100
AcDbCircle
 10
117.4499999998203
 20
208.1
 30
0.0
 40
3.399999999999999
100
AcDbArc
 50
89.99999999999991
 51
189.9999999999998
  0
LINE
  5
60
330
13D
100
AcDbEntity
  8
Left
370
     0
100
AcDbLine
 10
114.1016536395789
 20
207.5095961959324
 30
0.0
 11
114.9127577508377
 21
202.9095961959324
 31
0.0
  0
ARC
  5
61
330
13D
100
AcDbEntity
  8
Left
370
     0
100
AcDbCircle
 10
118.2611041110793
 20
203.5
 30
0.0
 40
3.399999999999999
100
AcDbArc
 50
190.0
 51
270.0
  0
LINE
  5
62
330
13D
100
AcDbEntity
  8
Left
370
     0
100
AcDbLine
 10
85.74999999982033
 20
211.5
 30
0.0
 11
99.45000000017976
 21
211.4999999999999
 31
0.0
  0
LINE
  5
63
330
13D
100
AcDbEntity
  8
7
100
AcDbLine
 10
77.59803778500005
 20
205.8
 30
0.0
 11
107.6019622149999
 21
205.8
 31
0.0
  0
LINE
  5
64
330
13D
100
AcDbEntity
  8
7
100
AcDbLine
 10
92.60000000000004
 20
196.8
 30
0.0
 11
92.60000000000004
 21
212.8000000000001
 31
0.0
  0
LINE
  5
65
330
13D
100
AcDbEntity
  8
Left
370
     0
100
AcDbLine
 10
86.56110411107925
 20
200.1
 30
0.0
 11
98.63889588892076
 21
200.1
 31
0.0
  0
ARC
  5
66
330
13D
100
AcDbEntity
  8
Left
370
     0
100
AcDbCircle
 10
98.63889588892076
 20
203.5
 30
0.0
 40
3.399999999999999
100
AcDbArc
 50
270.0
 51
349.9999999999993
  0
LINE
  5
67
330
13D
100
AcDbEntity
  8
Left
370
     0
100
AcDbLine
 10
102.7983463604212
 20
207.5095961959323
 30
0.0
 11
101.9872422491622
 21
202.9095961959324
 31
0.0
  0
ARC
  5
68
330
13D
100
AcDbEntity
  8
Left
370
     0
100
AcDbCircle
 10
99.45000000017976
 20
208.0999999999999
 30
0.0
 40
3.399999999999999
100
AcDbArc
 50
349.9999999999995
 51
89.99999999999991
  0
ARC
  5
69
330
13D
100
AcDbEntity
  8
Left
370
     0
100
AcDbCircle
 10
85.74999999982033
 20
208.1
 30
0.0
 40
3.399999999999999
100
AcDbArc
 50
89.99999999999991
 51
189.9999999999998
  0
LINE
  5
6A
330
13D
100
AcDbEntity
  8
Left
370
     0
100
AcDbLine
 10
82.40165363957884
 20
207.5095961959324
 30
0.0
 11
83.21275775083772
 21
202.9095961959324
 31
0.0
  0
ARC
  5
6B
330
13D
100
AcDbEntity
  8
Left
370
     0
100
AcDbCircle
 10
86.56110411107925
 20
203.5
 30
0.0
 40
3.399999999999999
100
AcDbArc
 50
190.0
 51
270.0
  0
CIRCLE
  5
6C
330
13D
100
AcDbEntity
  8
Left
370
     0
100
AcDbCircle
 10
79.89999999999999
 20
205.8
 30
0.0
 40
1.6
  0
CIRCLE
  5
6D
330
13D
100
AcDbEntity
  8
Left
370
     0
100
AcDbCircle
 10
105.3
 20
205.8
 30
0.0
 40
1.6
  0
CIRCLE
  5
6E
330
13D
100
AcDbEntity
  8
Left
370
     0
100
AcDbCircle
 10
137.0
 20
205.8
 30
0.0
 40
1.6
  0
CIRCLE
  5
6F
330
13D
100
AcDbEntity
  8
Left
370
     0
100
AcDbCircle
 10
111.6
 20
205.8
 30
0.0
 40
1.6
  0
LINE
  5
70
330
13D
100
AcDbEntity
  8
Right
370
     0
100
AcDbLine
 10
45.9
 20
149.5
 30
0.0
 11
71.5
 21
149.5
 31
0.0
  0
LINE
  5
71
330
13D
100
AcDbEntity
  8
Right
370
     0
100
AcDbLine
 10
73.0
 20
151.0
 30
0.0
 11
73.0
 21
157.7
 31
0.0
  0
LINE
  5
72
330
13D
100
AcDbEntity
  8
Right
370
     0
100
AcDbLine
 10
71.5
 20
159.2
 30
0.0
 11
45.9
 21
159.2
 31
0.0
  0
LINE
  5
73
330
13D
100
AcDbEntity
  8
Right
370
     0
100
AcDbLine
 10
44.4
 20
157.7
 30
0.0
 11
44.4
 21
151.0
 31
0.0
  0
CIRCLE
  5
74
330
13D
100
AcDbEntity
  8
Right
370
     0
100
AcDbCircle
 10
79.5
 20
156.7
 30
0.0
 40
4.0
  0
LINE
  5
77
330
13D
100
AcDbEntity
  8
Right
370
     0
100
AcDbLine
 10
87.0
 20
149.5
 30
0.0
 11
114.0
 21
149.5
 31
0.0
  0
LINE
  5
78
330
13D
100
AcDbEntity
  8
Right
370
     0
100
AcDbLine
 10
115.5
 20
151.0
 30
0.0
 11
115.5
 21
161.0
 31
0.0
  0
LINE
  5
79
330
13D
100
AcDbEntity
  8
Right
370
     0
100
AcDbLine
 10
114.0
 20
162.5
 30
0.0
 11
87.0
 21
162.5
 31
0.0
  0
CIRCLE
  5
7C
330
13D
100
AcDbEntity
  8
Right
370
     0
100
AcDbCircle
 10
122.6
 20
156.0
 30
0.0
 40
6.0
  0
CIRCLE
  5
7D
330
13D
100
AcDbEntity
  8
Right
370
     0
100
AcDbCircle
 10
137.0
 20
156.0
 30
0.0
 40
6.0
  0
LINE
  5
7E
330
13D
100
AcDbEntity
  8
Back
370
     0
100
AcDbLine
 10
257.0
 20
90.0
 30
0.0
 11
257.0
 21
90.0
 31
0.0
  0
LINE
  5
7F
330
13D
100
AcDbEntity
  8
Back
370
     0
100
AcDbLine
 10
257.0
 20
90.0
 30
0.0
 11
257.0
 21
90.0
 31
0.0
  0
LINE
  5
80
330
13D
100
AcDbEntity
  8
Back
370
     0
100
AcDbLine
 10
179.7499999998203
 20
111.5
 30
0.0
 11
193.4500000001798
 21
111.4999999999999
 31
0.0
  0
LINE
  5
81
330
13D
100
AcDbEntity
  8
7
100
AcDbLine
 10
170.5980377850001
 20
105.8
 30
0.0
 11
200.601962215
 21
105.8
 31
0.0
  0
LINE
  5
82
330
13D
100
AcDbEntity
  8
7
100
AcDbLine
 10
185.6000000000001
 20
96.79999999999997
 30
0.0
 11
185.6000000000001
 21
112.8000000000001
 31
0.0
  0
LINE
  5
83
330
13D
100
AcDbEntity
  8
Back
370
     0
100
AcDbLine
 10
180.5611041110793
 20
100.1
 30
0.0
 11
192.6388958889208
 21
100.1
 31
0.0
  0
ARC
  5
84
330
13D
100
AcDbEntity
  8
Back
370
     0
100
AcDbCircle
 10
192.6388958889208
 20
103.5
 30
0.0
 40
3.399999999999999
100
AcDbArc
 50
270.0
 51
349.9999999999993
  0
LINE
  5
85
330
13D
100
AcDbEntity
  8
Back
370
     0
100
AcDbLine
 10
196.7983463604212
 20
107.5095961959323
 30
0.0
 11
195.9872422491623
 21
102.9095961959324
 31
0.0
  0
ARC
  5
86
330
13D
100
AcDbEntity
  8
Back
370
     0
100
AcDbCircle
 10
193.4500000001798
 20
108.0999999999999
 30
0.0
 40
3.399999999999999
100
AcDbArc
 50
349.9999999999995
 51
89.99999999999991
  0
ARC
  5
87
330
13D
100
AcDbEntity
  8
Back
370
     0
100
AcDbCircle
 10
179.7499999998203
 20
108.1
 30
0.0
 40
3.399999999999999
100
AcDbArc
 50
89.99999999999991
 51
189.9999999999998
  0
LINE
  5
88
330
13D
100
AcDbEntity
  8
Back
370
     0
100
AcDbLine
 10
176.4016536395789
 20
107.5095961959324
 30
0.0
 11
177.2127577508378
 21
102.9095961959324
 31
0.0
  0
ARC
  5
89
330
13D
100
AcDbEntity
  8
Back
370
     0
100
AcDbCircle
 10
180.5611041110793
 20
103.5
 30
0.0
 40
3.399999999999999
100
AcDbArc
 50
190.0
 51
270.0
  0
CIRCLE
  5
8A
330
13D
100
AcDbEntity
  8
Back
370
     0
100
AcDbCircle
 10
199.3
 20
105.8
 30
0.0
 40
1.6
  0
CIRCLE
  5
8B
330
13D
100
AcDbEntity
  8
Back
370
     0
100
AcDbCircle
 10
173.9
 20
105.8
 30
0.0
 40
1.6
  0
LINE
  5
8C
330
13D
100
AcDbEntity
  8
Back
370
     0
100
AcDbLine
 10
147.4499999998203
 20
111.5
 30
0.0
 11
161.1500000001798
 21
111.4999999999999
 31
0.0
  0
LINE
  5
8D
330
13D
100
AcDbEntity
  8
7
100
AcDbLine
 10
138.298037785
 20
105.8
 30
0.0
 11
168.3019622149999
 21
105.8
 31
0.0
  0
LINE
  5
8E
330
13D
100
AcDbEntity
  8
7
100
AcDbLine
 10
153.3
 20
96.79999999999997
 30
0.0
 11
153.3
 21
112.8000000000001
 31
0.0
  0
LINE
  5
8F
330
13D
100
AcDbEntity
  8
Back
370
     0
100
AcDbLine
 10
148.2611041110793
 20
100.1
 30
0.0
 11
160.3388958889208
 21
100.1
 31
0.0
  0
ARC
  5
90
330
13D
100
AcDbEntity
  8
Back
370
     0
100
AcDbCircle
 10
160.3388958889208
 20
103.5
 30
0.0
 40
3.399999999999999
100
AcDbArc
 50
270.0
 51
349.9999999999993
  0
LINE
  5
91
330
13D
100
AcDbEntity
  8
Back
370
     0
100
AcDbLine
 10
164.4983463604212
 20
107.5095961959323
 30
0.0
 11
163.6872422491622
 21
102.9095961959324
 31
0.0
  0
ARC
  5
92
330
13D
100
AcDbEntity
  8
Back
370
     0
100
AcDbCircle
 10
161.1500000001798
 20
108.0999999999999
 30
0.0
 40
3.399999999999999
100
AcDbArc
 50
349.9999999999995
 51
89.99999999999991
  0
ARC
  5
93
330
13D
100
AcDbEntity
  8
Back
370
     0
100
AcDbCircle
 10
147.4499999998203
 20
108.1
 30
0.0
 40
3.399999999999999
100
AcDbArc
 50
89.99999999999991
 51
189.9999999999998
  0
LINE
  5
94
330
13D
100
AcDbEntity
  8
Back
370
     0
100
AcDbLine
 10
144.1016536395789
 20
107.5095961959324
 30
0.0
 11
144.9127577508378
 21
102.9095961959324
 31
0.0
  0
ARC
  5
95
330
13D
100
AcDbEntity
  8
Back
370
     0
100
AcDbCircle
 10
148.2611041110793
 20
103.5
 30
0.0
 40
3.399999999999999
100
AcDbArc
 50
190.0
 51
270.0
  0
CIRCLE
  5
96
330
13D
100
AcDbEntity
  8
Back
370
     0
100
AcDbCircle
 10
167.0
 20
105.8
 30
0.0
 40
1.6
  0
CIRCLE
  5
97
330
13D
100
AcDbEntity
  8
Back
370
     0
100
AcDbCircle
 10
141.6
 20
105.8
 30
0.0
 40
1.6
  0
LINE
  5
98
330
13D
100
AcDbEntity
  8
Back
370
     0
100
AcDbLine
 10
212.0519622148202
 20
111.5
 30
0.0
 11
247.7480377851797
 21
111.4999999999999
 31
0.0
  0
ARC
  5
99
330
13D
100
AcDbEntity
  8
Back
370
     0
100
AcDbCircle
 10
247.7480377851797
 20
108.1
 30
0.0
 40
3.399999999999999
100
AcDbArc
 50
349.9999999999995
 51
89.99999999999991
  0
LINE
  5
9A
330
13D
100
AcDbEntity
  8
7
100
AcDbLine
 10
202.9
 20
105.8
 30
0.0
 11
254.9
 21
105.8
 31
0.0
  0
ARC
  5
9B
330
13D
100
AcDbEntity
  8
Back
370
     0
100
AcDbCircle
 10
246.9369336739207
 20
103.5
 30
0.0
 40
3.399999999999999
100
AcDbArc
 50
270.0
 51
349.9999999999993
  0
LINE
  5
9C
330
13D
100
AcDbEntity
  8
Back
370
     0
100
AcDbLine
 10
212.8630663260792
 20
100.1
 30
0.0
 11
246.9369336739207
 21
100.1
 31
0.0
  0
LINE
  5
9D
330
13D
100
AcDbEntity
  8
7
100
AcDbLine
 10
228.9
 20
96.80000000000003
 30
0.0
 11
228.9
 21
112.8000000000001
 31
0.0
  0
ARC
  5
9E
330
13D
100
AcDbEntity
  8
Back
370
     0
100
AcDbCircle
 10
212.8630663260792
 20
103.5
 30
0.0
 40
3.399999999999999
100
AcDbArc
 50
190.0
 51
270.0
  0
LINE
  5
9F
330
13D
100
AcDbEntity
  8
Back
370
     0
100
AcDbLine
 10
208.7036158545787
 20
107.5095961959324
 30
0.0
 11
209.5147199658377
 21
102.9095961959325
 31
0.0
  0
ARC
  5
A0
330
13D
100
AcDbEntity
  8
Back
370
     0
100
AcDbCircle
 10
212.0519622148202
 20
108.1
 30
0.0
 40
3.399999999999999
100
AcDbArc
 50
89.99999999999991
 51
189.9999999999998
  0
LINE
  5
A1
330
13D
100
AcDbEntity
  8
Back
370
     0
100
AcDbLine
 10
251.0963841454212
 20
107.5095961959323
 30
0.0
 11
250.2852800341622
 21
102.9095961959324
 31
0.0
  0
CIRCLE
  5
A2
330
13D
100
AcDbEntity
  8
Back
370
     0
100
AcDbCircle
 10
206.5019622149999
 20
105.8000000000001
 30
0.0
 40
1.6
  0
CIRCLE
  5
A3
330
13D
100
AcDbEntity
  8
Back
370
     0
100
AcDbCircle
 10
253.2980377849999
 20
105.8
 30
0.0
 40
1.6
  0
LINE
  5
A4
330
13D
100
AcDbEntity
  8
Back
370
     0
100
AcDbLine
 10
71.45196221482021
 20
111.5
 30
0.0
 11
107.1480377851797
 21
111.4999999999999
 31
0.0
  0
ARC
  5
A5
330
13D
100
AcDbEntity
  8
Back
370
     0
100
AcDbCircle
 10
107.1480377851797
 20
108.1
 30
0.0
 40
3.399999999999999
100
AcDbArc
 50
349.9999999999995
 51
89.99999999999991
  0
LINE
  5
A6
330
13D
100
AcDbEntity
  8
7
100
AcDbLine
 10
62.30000000000001
 20
105.8
 30
0.0
 11
114.3
 21
105.8
 31
0.0
  0
ARC
  5
A7
330
13D
100
AcDbEntity
  8
Back
370
     0
100
AcDbCircle
 10
106.3369336739207
 20
103.5
 30
0.0
 40
3.399999999999999
100
AcDbArc
 50
270.0
 51
349.9999999999993
  0
LINE
  5
A8
330
13D
100
AcDbEntity
  8
Back
370
     0
100
AcDbLine
 10
72.26306632607921
 20
100.1
 30
0.0
 11
106.3369336739207
 21
100.1
 31
0.0
  0
LINE
  5
A9
330
13D
100
AcDbEntity
  8
7
100
AcDbLine
 10
88.30000000000001
 20
96.80000000000003
 30
0.0
 11
88.30000000000001
 21
112.8000000000001
 31
0.0
  0
ARC
  5
AA
330
13D
100
AcDbEntity
  8
Back
370
     0
100
AcDbCircle
 10
72.26306632607921
 20
103.5
 30
0.0
 40
3.399999999999999
100
AcDbArc
 50
190.0
 51
270.0
  0
LINE
  5
AB
330
13D
100
AcDbEntity
  8
Back
370
     0
100
AcDbLine
 10
68.10361585457872
 20
107.5095961959324
 30
0.0
 11
68.91471996583772
 21
102.9095961959325
 31
0.0
  0
ARC
  5
AC
330
13D
100
AcDbEntity
  8
Back
370
     0
100
AcDbCircle
 10
71.45196221482021
 20
108.1
 30
0.0
 40
3.399999999999999
100
AcDbArc
 50
89.99999999999991
 51
189.9999999999998
  0
LINE
  5
AD
330
13D
100
AcDbEntity
  8
Back
370
     0
100
AcDbLine
 10
110.4963841454212
 20
107.5095961959323
 30
0.0
 11
109.6852800341622
 21
102.9095961959324
 31
0.0
  0
CIRCLE
  5
AE
330
13D
100
AcDbEntity
  8
Back
370
     0
100
AcDbCircle
 10
65.90196221499988
 20
105.8000000000001
 30
0.0
 40
1.6
  0
CIRCLE
  5
AF
330
13D
100
AcDbEntity
  8
Back
370
     0
100
AcDbCircle
 10
112.6980377849999
 20
105.8
 30
0.0
 40
1.6
  0
LINE
  5
B0
330
13D
100
AcDbEntity
  8
Back
370
     0
100
AcDbLine
 10
26.55165363957871
 20
107.5095961959324
 30
0.0
 11
27.36275775083771
 21
102.9095961959324
 31
0.0
  0
ARC
  5
B1
330
13D
100
AcDbEntity
  8
Back
370
     0
100
AcDbCircle
 10
29.89999999982029
 20
108.1
 30
0.0
 40
3.399999999999999
100
AcDbArc
 50
89.99999999999991
 51
189.9999999999998
  0
LINE
  5
B2
330
13D
100
AcDbEntity
  8
Back
370
     0
100
AcDbLine
 10
29.89999999982029
 20
111.5
 30
0.0
 11
51.90000000017972
 21
111.4999999999999
 31
0.0
  0
ARC
  5
B3
330
13D
100
AcDbEntity
  8
Back
370
     0
100
AcDbCircle
 10
51.90000000017972
 20
108.0999999999999
 30
0.0
 40
3.399999999999999
100
AcDbArc
 50
349.9999999999995
 51
89.99999999999991
  0
LINE
  5
B4
330
13D
100
AcDbEntity
  8
Back
370
     0
100
AcDbLine
 10
55.24834636042121
 20
107.5095961959323
 30
0.0
 11
54.4372422491622
 21
102.9095961959324
 31
0.0
  0
LINE
  5
B5
330
13D
100
AcDbEntity
  8
7
100
AcDbLine
 10
20.748037785
 20
105.8
 30
0.0
 11
59.051962215
 21
105.8
 31
0.0
  0
ARC
  5
B6
330
13D
100
AcDbEntity
  8
Back
370
     0
100
AcDbCircle
 10
51.08889588892072
 20
103.5
 30
0.0
 40
3.399999999999999
100
AcDbArc
 50
270.0
 51
349.9999999999993
  0
LINE
  5
B7
330
13D
100
AcDbEntity
  8
Back
370
     0
100
AcDbLine
 10
30.7111041110792
 20
100.1
 30
0.0
 11
51.0888958889207
 21
100.1
 31
0.0
  0
LINE
  5
B8
330
13D
100
AcDbEntity
  8
7
100
AcDbLine
 10
39.9
 20
96.80000000000001
 30
0.0
 11
39.9
 21
112.8000000000001
 31
0.0
  0
ARC
  5
B9
330
13D
100
AcDbEntity
  8
Back
370
     0
100
AcDbCircle
 10
30.7111041110792
 20
103.5
 30
0.0
 40
3.399999999999999
100
AcDbArc
 50
190.0
 51
270.0
  0
CIRCLE
  5
BA
330
13D
100
AcDbEntity
  8
Back
370
     0
100
AcDbCircle
 10
57.60000000000001
 20
105.8
 30
0.0
 40
1.6
  0
CIRCLE
  5
BB
330
13D
100
AcDbEntity
  8
Back
370
     0
100
AcDbCircle
 10
24.20000000000001
 20
105.8
 30
0.0
 40
1.6
  0
CIRCLE
  5
BC
330
13D
100
AcDbEntity
  8
Back
370
     0
100
AcDbCircle
 10
127.3
 20
109.6
 30
0.0
 40
8.0
  0
CIRCLE
  5
BD
330
13D
100
AcDbEntity
  8
Front
370
     0
100
AcDbCircle
 10
31.9
 20
57.12
 30
0.0
 40
1.6
  0
CIRCLE
  5
BE
330
13D
100
AcDbEntity
  8
Front
370
     0
100
AcDbCircle
 10
31.9
 20
52.04
 30
0.0
 40
1.6
  0
CIRCLE
  5
BF
330
13D
100
AcDbEntity
  8
Front
370
     0
100
AcDbCircle
 10
37.0
 20
57.12
 30
0.0
 40
1.6
  0
CIRCLE
  5
C0
330
13D
100
AcDbEntity
  8
Front
370
     0
100
AcDbCircle
 10
37.0
 20
52.04
 30
0.0
 40
1.6
  0
CIRCLE
  5
C1
330
13D
100
AcDbEntity
  8
Front
370
     0
100
AcDbCircle
 10
42.1
 20
57.12
 30
0.0
 40
1.6
  0
CIRCLE
  5
C2
330
13D
100
AcDbEntity
  8
Front
370
     0
100
AcDbCircle
 10
42.1
 20
52.04
 30
0.0
 40
1.6
  0
CIRCLE
  5
C3
330
13D
100
AcDbEntity
  8
Front
370
     0
100
AcDbCircle
 10
47.2
 20
57.12
 30
0.0
 40
1.6
  0
CIRCLE
  5
C4
330
13D
100
AcDbEntity
  8
Front
370
     0
100
AcDbCircle
 10
47.2
 20
52.04
 30
0.0
 40
1.6
  0
CIRCLE
  5
C5
330
13D
100
AcDbEntity
  8
Front
370
     0
100
AcDbCircle
 10
52.3
 20
57.12
 30
0.0
 40
1.6
  0
CIRCLE
  5
C6
330
13D
100
AcDbEntity
  8
Front
370
     0
100
AcDbCircle
 10
52.3
 20
52.04
 30
0.0
 40
1.6
  0
LINE
  5
C7
330
13D
100
AcDbEntity
  8
Front
370
     0
100
AcDbLine
 10
86.5
 20
51.1
 30
0.0
 11
93.5
 21
51.1
 31
0.0
  0
LINE
  5
C8
330
13D
100
AcDbEntity
  8
Front
370
     0
100
AcDbLine
 10
95.0
 20
52.6
 30
0.0
 11
95.0
 21
58.3
 31
0.0
  0
LINE
  5
C9
330
13D
100
AcDbEntity
  8
Front
370
     0
100
AcDbLine
 10
93.5
 20
59.8
 30
0.0
 11
86.5
 21
59.8
 31
0.0
  0
LINE
  5
CA
330
13D
100
AcDbEntity
  8
Front
370
     0
100
AcDbLine
 10
85.0
 20
58.3
 30
0.0
 11
85.0
 21
52.6
 31
0.0
  0
CIRCLE
  5
CB
330
13D
100
AcDbEntity
  8
Front
370
     0
100
AcDbCircle
 10
116.7
 20
52.7
 30
0.0
 40
3.2
  0
CIRCLE
  5
CC
330
13D
100
AcDbEntity
  8
Front
370
     0
100
AcDbCircle
 10
129.3
 20
52.7
 30
0.0
 40
3.2
  0
CIRCLE
  5
CD
330
13D
100
AcDbEntity
  8
Front
370
     0
100
AcDbCircle
 10
141.8
 20
52.7
 30
0.0
 40
3.2
  0
CIRCLE
  5
CE
330
13D
100
AcDbEntity
  8
Front
370
     0
100
AcDbCircle
 10
154.2
 20
52.7
 30
0.0
 40
3.2
  0
CIRCLE
  5
CF
330
13D
100
AcDbEntity
  8
Front
370
     0
100
AcDbCircle
 10
166.6
 20
52.7
 30
0.0
 40
3.2
  0
LINE
  5
D0
330
13D
100
AcDbEntity
  8
Front
370
     0
100
AcDbLine
 10
177.7
 20
51.0
 30
0.0
 11
219.7
 21
51.0
 31
0.0
  0
LINE
  5
D1
330
13D
100
AcDbEntity
  8
Front
370
     0
100
AcDbLine
 10
221.2
 20
52.5
 30
0.0
 11
221.2
 21
54.7
 31
0.0
  0
LINE
  5
D2
330
13D
100
AcDbEntity
  8
Front
370
     0
100
AcDbLine
 10
219.7
 20
56.2
 30
0.0
 11
177.7
 21
56.2
 31
0.0
  0
LINE
  5
D3
330
13D
100
AcDbEntity
  8
Front
370
     0
100
AcDbLine
 10
176.2
 20
54.7
 30
0.0
 11
176.2
 21
52.5
 31
0.0
  0
LINE
  5
D5
330
13D
100
AcDbEntity
  8
Front
370
     0
100
AcDbLine
 10
237.3
 20
52.5
 30
0.0
 11
237.3
 21
55.5
 31
0.0
  0
LINE
  5
D6
330
13D
100
AcDbEntity
  8
Front
370
     0
100
AcDbLine
 10
235.8
 20
57.0
 30
0.0
 11
224.8
 21
57.0
 31
0.0
  0
LINE
  5
D7
330
13D
100
AcDbEntity
  8
Front
370
     0
100
AcDbLine
 10
223.3
 20
55.5
 30
0.0
 11
223.3
 21
52.5
 31
0.0
  0
LINE
  5
D8
330
13D
100
AcDbEntity
  8
Front
370
     0
100
AcDbLine
 10
100.2
 20
51.1
 30
0.0
 11
107.2
 21
51.1
 31
0.0
  0
LINE
  5
D9
330
13D
100
AcDbEntity
  8
Front
370
     0
100
AcDbLine
 10
108.7
 20
52.6
 30
0.0
 11
108.7
 21
58.3
 31
0.0
  0
LINE
  5
DA
330
13D
100
AcDbEntity
  8
Front
370
     0
100
AcDbLine
 10
107.2
 20
59.8
 30
0.0
 11
100.2
 21
59.8
 31
0.0
  0
LINE
  5
DB
330
13D
100
AcDbEntity
  8
Front
370
     0
100
AcDbLine
 10
98.7
 20
58.3
 30
0.0
 11
98.7
 21
52.6
 31
0.0
  0
LINE
  5
DC
330
13D
100
AcDbEntity
  8
Front
370
     0
100
AcDbLine
 10
240.8
 20
50.25
 30
0.0
 11
253.6
 21
50.25
 31
0.0
  0
LINE
  5
DD
330
13D
100
AcDbEntity
  8
Front
370
     0
100
AcDbLine
 10
255.1
 20
51.75
 30
0.0
 11
255.1
 21
64.25
 31
0.0
  0
LINE
  5
DE
330
13D
100
AcDbEntity
  8
Front
370
     0
100
AcDbLine
 10
253.6
 20
65.75
 30
0.0
 11
240.8
 21
65.75
 31
0.0
  0
LINE
  5
DF
330
13D
100
AcDbEntity
  8
Front
370
     0
100
AcDbLine
 10
239.3
 20
64.25
 30
0.0
 11
239.3
 21
51.75
 31
0.0
  0
MTEXT
  5
E4
330
13D
100
AcDbEntity
  8
0
370
     0
100
AcDbMText
 10
180.8125325013
 20
181.2927717108684
 30
0.0
 40
4.0
 41
100.0
 46
0.0
 71
     4
 72
     1
  1
Aluminium silber eloxiert.\PRänder blank.\pStärke: 1.0mm
  7
textstyle0
 73
     1
 44
1.0
  0
LINE
  5
E5
330
13D
100
AcDbEntity
  8
Front
370
     0
100
AcDbLine
 10
38.8
 20
48.0
 30
0.0
 11
63.8
 21
48.0
 31
0.0
  0
LINE
  5
E6
330
13D
100
AcDbEntity
  8
Front
370
     0
100
AcDbLine
 10
65.3
 20
46.5
 30
0.0
 11
65.3
 21
46.3
 31
0.0
  0
LINE
  5
E7
330
13D
100
AcDbEntity
  8
Front
370
     0
100
AcDbLine
 10
63.8
 20
44.8
 30
0.0
 11
38.8
 21
44.8
 31
0.0
  0
LINE
  5
E8
330
13D
100
AcDbEntity
  8
Front
370
     0
100
AcDbLine
 10
37.3
 20
46.3
 30
0.0
 11
37.3
 21
46.5
 31
0.0
  0
CIRCLE
  5
EB
330
13D
100
AcDbEntity
  8
Front
370
     0
100
AcDbCircle
 10
72.0
 20
53.0
 30
0.0
 40
2.0
  0
CIRCLE
  5
EF
330
13D
100
AcDbEntity
  8
Left
370
     0
100
AcDbCircle
 10
45.3
 20
209.5
 30
0.0
 40
8.0
  0
LINE
  5
F1
330
13D
100
AcDbEntity
  8
Left
370
     0
100
AcDbLine
 10
66.5
 20
209.5
 30
0.0
 11
66.5
 21
209.5
 31
0.0
  0
CIRCLE
  5
F2
330
13D
100
AcDbEntity
  8
Left
370
     0
100
AcDbCircle
 10
66.0
 20
209.5
 30
0.0
 40
8.0
  0
LINE
  5
F6
330
13D
100
AcDbEntity
  8
Front
370
     0
100
AcDbLine
 10
224.8
 20
51.0
 30
0.0
 11
235.8
 21
51.0
 31
0.0
  0
ARC
  5
F8
330
13D
100
AcDbEntity
  8
Front
370
     0
100
AcDbCircle
 10
224.8
 20
55.5
 30
0.0
 40
1.5
100
AcDbArc
 50
90.0
 51
180.0
  0
ARC
  5
F9
330
13D
100
AcDbEntity
  8
Front
370
     0
100
AcDbCircle
 10
224.8
 20
52.5
 30
0.0
 40
1.5
100
AcDbArc
 50
180.0
 51
270.0
  0
ARC
  5
FA
330
13D
100
AcDbEntity
  8
Front
370
     0
100
AcDbCircle
 10
235.8
 20
52.5
 30
0.0
 40
1.5
100
AcDbArc
 50
270.0
 51
0.0
  0
ARC
  5
FE
330
13D
100
AcDbEntity
  8
Front
370
     0
100
AcDbCircle
 10
235.8
 20
55.5
 30
0.0
 40
1.5
100
AcDbArc
 50
0.0
 51
90.0
  0
ARC
  5
FF
330
13D
100
AcDbEntity
  8
Front
370
     0
100
AcDbCircle
 10
219.7
 20
54.7
 30
0.0
 40
1.5
100
AcDbArc
 50
0.0
 51
90.0
  0
ARC
  5
101
330
13D
100
AcDbEntity
  8
Front
370
     0
100
AcDbCircle
 10
219.7
 20
52.5
 30
0.0
 40
1.5
100
AcDbArc
 50
270.0
 51
0.0
  0
ARC
  5
102
330
13D
100
AcDbEntity
  8
Front
370
     0
100
AcDbCircle
 10
177.7
 20
54.7
 30
0.0
 40
1.5
100
AcDbArc
 50
90.0
 51
180.0
  0
ARC
  5
103
330
13D
100
AcDbEntity
  8
Front
370
     0
100
AcDbCircle
 10
177.7
 20
52.5
 30
0.0
 40
1.5
100
AcDbArc
 50
180.0
 51
270.0
  0
ARC
  5
104
330
13D
100
AcDbEntity
  8
Front
370
     0
100
AcDbCircle
 10
240.8
 20
51.75
 30
0.0
 40
1.5
100
AcDbArc
 50
180.0
 51
270.0
  0
ARC
  5
105
330
13D
100
AcDbEntity
  8
Front
370
     0
100
AcDbCircle
 10
240.8
 20
64.25
 30
0.0
 40
1.5
100
AcDbArc
 50
90.0
 51
180.0
  0
ARC
  5
106
330
13D
100
AcDbEntity
  8
Front
370
     0
100
AcDbCircle
 10
253.6
 20
64.25
 30
0.0
 40
1.5
100
AcDbArc
 50
0.0
 51
90.0
  0
ARC
  5
107
330
13D
100
AcDbEntity
  8
Front
370
     0
100
AcDbCircle
 10
253.6
 20
51.75
 30
0.0
 40
1.5
100
AcDbArc
 50
270.0
 51
0.0
  0
ARC
  5
108
330
13D
100
AcDbEntity
  8
Front
370
     0
100
AcDbCircle
 10
86.5
 20
58.3
 30
0.0
 40
1.5
100
AcDbArc
 50
90.0
 51
180.0
  0
ARC
  5
109
330
13D
100
AcDbEntity
  8
Front
370
     0
100
AcDbCircle
 10
93.5
 20
58.3
 30
0.0
 40
1.5
100
AcDbArc
 50
0.0
 51
90.0
  0
ARC
  5
10A
330
13D
100
AcDbEntity
  8
Front
370
     0
100
AcDbCircle
 10
86.5
 20
52.6
 30
0.0
 40
1.5
100
AcDbArc
 50
180.0
 51
270.0
  0
ARC
  5
10B
330
13D
100
AcDbEntity
  8
Front
370
     0
100
AcDbCircle
 10
93.5
 20
52.6
 30
0.0
 40
1.5
100
AcDbArc
 50
270.0
 51
0.0
  0
ARC
  5
10C
330
13D
100
AcDbEntity
  8
Front
370
     0
100
AcDbCircle
 10
100.2
 20
52.6
 30
0.0
 40
1.5
100
AcDbArc
 50
180.0
 51
270.0
  0
ARC
  5
10D
330
13D
100
AcDbEntity
  8
Front
370
     0
100
AcDbCircle
 10
100.2
 20
58.3
 30
0.0
 40
1.5
100
AcDbArc
 50
90.0
 51
180.0
  0
ARC
  5
10E
330
13D
100
AcDbEntity
  8
Front
370
     0
100
AcDbCircle
 10
107.2
 20
58.3
 30
0.0
 40
1.5
100
AcDbArc
 50
0.0
 51
90.0
  0
ARC
  5
10F
330
13D
100
AcDbEntity
  8
Front
370
     0
100
AcDbCircle
 10
107.2
 20
52.6
 30
0.0
 40
1.5
100
AcDbArc
 50
270.0
 51
0.0
  0
ARC
  5
110
330
13D
100
AcDbEntity
  8
Front
370
     0
100
AcDbCircle
 10
63.8
 20
46.3
 30
0.0
 40
1.5
100
AcDbArc
 50
270.0
 51
0.0
  0
ARC
  5
111
330
13D
100
AcDbEntity
  8
Front
370
     0
100
AcDbCircle
 10
63.8
 20
46.5
 30
0.0
 40
1.5
100
AcDbArc
 50
0.0
 51
90.0
  0
ARC
  5
112
330
13D
100
AcDbEntity
  8
Front
370
     0
100
AcDbCircle
 10
38.8
 20
46.5
 30
0.0
 40
1.5
100
AcDbArc
 50
90.0
 51
180.0
  0
ARC
  5
113
330
13D
100
AcDbEntity
  8
Front
370
     0
100
AcDbCircle
 10
38.8
 20
46.3
 30
0.0
 40
1.5
100
AcDbArc
 50
180.0
 51
270.0
  0
ARC
  5
114
330
13D
100
AcDbEntity
  8
Right
370
     0
100
AcDbCircle
 10
45.9
 20
157.7
 30
0.0
 40
1.5
100
AcDbArc
 50
90.0
 51
180.0
  0
ARC
  5
115
330
13D
100
AcDbEntity
  8
Right
370
     0
100
AcDbCircle
 10
45.9
 20
151.0
 30
0.0
 40
1.5
100
AcDbArc
 50
180.0
 51
270.0
  0
ARC
  5
116
330
13D
100
AcDbEntity
  8
Right
370
     0
100
AcDbCircle
 10
71.5
 20
151.0
 30
0.0
 40
1.5
100
AcDbArc
 50
270.0
 51
0.0
  0
ARC
  5
117
330
13D
100
AcDbEntity
  8
Right
370
     0
100
AcDbCircle
 10
71.5
 20
157.7
 30
0.0
 40
1.5
100
AcDbArc
 50
0.0
 51
90.0
  0
ARC
  5
119
330
13D
100
AcDbEntity
  8
Right
370
     0
100
AcDbCircle
 10
114.0
 20
161.0
 30
0.0
 40
1.5
100
AcDbArc
 50
0.0
 51
90.0
  0
ARC
  5
11A
330
13D
100
AcDbEntity
  8
Right
370
     0
100
AcDbCircle
 10
114.0
 20
151.0
 30
0.0
 40
1.5
100
AcDbArc
 50
270.0
 51
0.0
  0
LINE
  5
11C
330
13D
100
AcDbEntity
  8
Right
370
     0
100
AcDbLine
 10
85.5
 20
161.0
 30
0.0
 11
85.5
 21
151.0
 31
0.0
  0
ARC
  5
11D
330
13D
100
AcDbEntity
  8
Right
370
     0
100
AcDbCircle
 10
87.0
 20
161.0
 30
0.0
 40
1.5
100
AcDbArc
 50
90.0
 51
180.0
  0
ARC
  5
11E
330
13D
100
AcDbEntity
  8
Right
370
     0
100
AcDbCircle
 10
87.0
 20
151.0
 30
0.0
 40
1.5
100
AcDbArc
 50
180.0
 51
270.0
  0
ENDSEC
  0
SECTION
  2
OBJECTS
  0
DICTIONARY
  5
12B
330
0
100
AcDbDictionary
281
     1
  3
ACAD_GROUP
350
12C
  3
ACAD_LAYOUT
350
138
  3
ACAD_MATERIAL
350
159
  3
ACAD_MLEADERSTYLE
350
18D
  3
ACAD_MLINESTYLE
350
135
  3
ACAD_PLOTSETTINGS
350
137
  3
ACAD_PLOTSTYLENAME
350
12D
  3
ACAD_TABLESTYLE
350
18C
  3
ACAD_VISUALSTYLE
350
148
  3
QCAD_OBJECTS
350
15E
  0
DICTIONARY
  5
12C
102
{ACAD_REACTORS
330
12B
102
}
330
12B
100
AcDbDictionary
281
     1
  0
DICTIONARY
  5
138
102
{ACAD_REACTORS
330
12B
102
}
330
12B
100
AcDbDictionary
281
     1
  3
Layout1
350
13C
  3
Layout2
350
144
  3
Model
350
140
  0
DICTIONARY
  5
159
102
{ACAD_REACTORS
330
12B
102
}
330
12B
100
AcDbDictionary
281
     1
  3
ByBlock
350
15B
  3
ByLayer
350
15A
  3
Global
350
15C
  0
DICTIONARY
  5
18D
102
{ACAD_REACTORS
330
12B
102
}
330
12B
100
AcDbDictionary
281
     1
  0
DICTIONARY
  5
135
102
{ACAD_REACTORS
330
12B
102
}
330
12B
100
AcDbDictionary
281
     1
  3
Standard
350
136
  0
DICTIONARY
  5
137
102
{ACAD_REACTORS
330
12B
102
}
330
12B
100
AcDbDictionary
281
     1
  0
ACDBDICTIONARYWDFLT
  5
12D
102
{ACAD_REACTORS
330
12B
102
}
330
12B
100
AcDbDictionary
281
     1
  3
Normal
350
12E
100
AcDbDictionaryWithDefault
340
12E
  0
DICTIONARY
  5
18C
102
{ACAD_REACTORS
330
12B
102
}
330
12B
100
AcDbDictionary
281
     1
  0
DICTIONARY
  5
148
102
{ACAD_REACTORS
330
12B
102
}
330
12B
100
AcDbDictionary
281
     1
  3
2dWireframe
350
14D
  3
3D Hidden
350
14F
  3
3dWireframe
350
14E
  3
Basic
350
150
  3
Brighten
350
154
  3
ColorChange
350
158
  3
Conceptual
350
152
  3
Dim
350
153
  3
Facepattern
350
157
  3
Flat
350
149
  3
FlatWithEdges
350
14A
  3
Gouraud
350
14B
  3
GouraudWithEdges
350
14C
  3
Linepattern
350
156
  3
Realistic
350
151
  3
Thicken
350
155
  0
DICTIONARY
  5
15E
102
{ACAD_REACTORS
330
12B
102
}
330
12B
100
AcDbDictionary
281
     1
  3
Grid/DisplayGrid
350
16E
  3
Grid/GridSpacingX
350
167
  3
Grid/GridSpacingY
350
168
  3
Grid/MetaGridSpacingX
350
162
  3
Grid/MetaGridSpacingY
350
165
  3
MultiPageSettings/Columns
350
166
  3
MultiPageSettings/GlueMarginsBottom
350
16B
  3
MultiPageSettings/GlueMarginsLeft
350
169
  3
MultiPageSettings/GlueMarginsRight
350
15F
  3
MultiPageSettings/GlueMarginsTop
350
172
  3
MultiPageSettings/PrintCropMarks
350
161
  3
MultiPageSettings/Rows
350
16A
  3
PageSettings/OffsetX
350
170
  3
PageSettings/OffsetY
350
171
  3
PageSettings/PageOrientation
350
160
  3
PageSettings/PaperHeight
350
163
  3
PageSettings/PaperWidth
350
16C
  3
PageSettings/Scale
350
164
  3
PageSettings/ShowPaperBorders
350
16F
  3
UnitSettings/PaperUnit
350
16D
  0
LAYOUT
  5
13C
102
{ACAD_REACTORS
330
138
102
}
330
138
100
AcDbPlotSettings
  1

  2
none_device
  4

  6

 40
0.0
 41
0.0
 42
0.0
 43
0.0
 44
0.0
 45
0.0
 46
0.0
 47
0.0
 48
0.0
 49
0.0
140
0.0
141
0.0
142
1.0
143
1.0
 70
   688
 72
     0
 73
     0
 74
     5
  7

 75
    16
 76
     0
 77
     2
 78
   300
147
1.0
148
0.0
149
0.0
100
AcDbLayout
  1
Layout1
 70
     1
 71
     1
 10
0.0
 20
0.0
 11
297.0
 21
210.0
 12
13.43213728549139
 22
-25.88143525741032
 32
0.0
 14
1.000000000000000E+20
 24
1.000000000000000E+20
 34
1.000000000000000E+20
 15
-1.000000000000000E+20
 25
-1.000000000000000E+20
 35
-1.000000000000000E+20
146
0.0
 13
0.0
 23
0.0
 33
0.0
 16
1.0
 26
0.0
 36
0.0
 17
0.0
 27
1.0
 37
0.0
 76
     0
330
139
  0
LAYOUT
  5
144
102
{ACAD_REACTORS
330
138
102
}
330
138
100
AcDbPlotSettings
  1

  2
none_device
  4

  6

 40
0.0
 41
0.0
 42
0.0
 43
0.0
 44
0.0
 45
0.0
 46
0.0
 47
0.0
 48
0.0
 49
0.0
140
0.0
141
0.0
142
1.0
143
1.0
 70
   688
 72
     0
 73
     0
 74
     5
  7

 75
    16
 76
     0
 77
     2
 78
   300
147
1.0
148
0.0
149
0.0
100
AcDbLayout
  1
Layout2
 70
     1
 71
     2
 10
0.0
 20
0.0
 11
0.0
 21
0.0
 12
0.0
 22
0.0
 32
0.0
 14
0.0
 24
0.0
 34
0.0
 15
0.0
 25
0.0
 35
0.0
146
0.0
 13
0.0
 23
0.0
 33
0.0
 16
1.0
 26
0.0
 36
0.0
 17
0.0
 27
1.0
 37
0.0
 76
     0
330
141
  0
LAYOUT
  5
140
102
{ACAD_REACTORS
330
138
102
}
330
138
100
AcDbPlotSettings
  1

  2
none_device
  4

  6

 40
0.0
 41
0.0
 42
0.0
 43
0.0
 44
0.0
 45
0.0
 46
0.0
 47
0.0
 48
0.0
 49
0.0
140
0.0
141
0.0
142
1.0
143
1.0
 70
  1712
 72
     0
 73
     0
 74
     0
  7

 75
     0
 76
     0
 77
     2
 78
   300
147
1.0
148
0.0
149
0.0
100
AcDbLayout
  1
Model
 70
     1
 71
     0
 10
0.0
 20
0.0
 11
12.0
 21
9.0
 12
0.0
 22
0.0
 32
0.0
 14
1.000000000000000E+20
 24
1.000000000000000E+20
 34
1.000000000000000E+20
 15
-1.000000000000000E+20
 25
-1.000000000000000E+20
 35
-1.000000000000000E+20
146
0.0
 13
0.0
 23
0.0
 33
0.0
 16
1.0
 26
0.0
 36
0.0
 17
0.0
 27
1.0
 37
0.0
 76
     0
330
13D
331
147
  0
MATERIAL
  5
15B
102
{ACAD_REACTORS
330
159
102
}
330
159
100
AcDbMaterial
  1
ByBlock
 72
     1
 94
      127
  0
MATERIAL
  5
15A
102
{ACAD_REACTORS
330
159
102
}
330
159
100
AcDbMaterial
  1
ByLayer
 72
     1
 94
      127
  0
MATERIAL
  5
15C
102
{ACAD_REACTORS
330
159
102
}
330
159
100
AcDbMaterial
  1
Global
 72
     1
 94
      127
  0
MLINESTYLE
  5
136
102
{ACAD_REACTORS
330
135
102
}
330
135
100
AcDbMlineStyle
  2
Standard
 70
     0
  3

 62
   256
 51
90.0
 52
90.0
 71
     2
 49
0.5
 62
   256
  6
BYLAYER
 49
-0.5
 62
   256
  6
BYLAYER
  0
ACDBPLACEHOLDER
  5
12E
102
{ACAD_REACTORS
330
12D
102
}
330
12D
  0
VISUALSTYLE
  5
14D
102
{ACAD_REACTORS
330
148
102
}
330
148
100
AcDbVisualStyle
  2
2dWireframe
 70
     4
177
     2
291
     0
 71
     0
176
     1
 72
     2
176
     1
 73
     0
176
     1
 90
        0
176
     1
 40
-0.6
176
     1
 41
-30.0
176
     1
 62
     5
 63
     7
421
 16777215
176
     1
 74
     1
176
     1
 91
        4
176
     1
 64
     7
176
     1
 65
   257
176
     1
 75
     1
176
     1
175
     1
176
     1
 42
1.0
176
     1
 92
        0
176
     1
 66
   257
176
     1
 43
1.0
176
     1
 76
     1
176
     1
 77
     6
176
     1
 78
     2
176
     1
 67
     7
176
     1
 79
     5
176
     1
170
     0
176
     1
171
     0
176
     1
290
     0
176
     1
 93
        1
176
     1
 44
0.0
176
     1
173
     0
176
     1
  0
VISUALSTYLE
  5
14F
102
{ACAD_REACTORS
330
148
102
}
330
148
100
AcDbVisualStyle
  2
3D Hidden
 70
     6
177
     2
291
     0
 71
     1
176
     1
 72
     2
176
     1
 73
     2
176
     1
 90
        0
176
     1
 40
-0.6
176
     1
 41
-30.0
176
     1
 62
     5
 63
     7
421
 16777215
176
     1
 74
     2
176
     1
 91
        2
176
     1
 64
     7
176
     1
 65
   257
176
     1
 75
     2
176
     1
175
     1
176
     1
 42
40.0
176
     1
 92
        0
176
     1
 66
   257
176
     1
 43
1.0
176
     1
 76
     1
176
     1
 77
     6
176
     1
 78
     2
176
     1
 67
     7
176
     1
 79
     3
176
     1
170
     0
176
     1
171
     0
176
     1
290
     0
176
     1
 93
        1
176
     1
 44
0.0
176
     1
173
     0
176
     1
  0
VISUALSTYLE
  5
14E
102
{ACAD_REACTORS
330
148
102
}
330
148
100
AcDbVisualStyle
  2
3dWireframe
 70
     5
177
     2
291
     0
 71
     0
176
     1
 72
     2
176
     1
 73
     0
176
     1
 90
        0
176
     1
 40
-0.6
176
     1
 41
-30.0
176
     1
 62
     5
 63
     7
421
 16777215
176
     1
 74
     1
176
     1
 91
        4
176
     1
 64
     7
176
     1
 65
   257
176
     1
 75
     1
176
     1
175
     1
176
     1
 42
1.0
176
     1
 92
        0
176
     1
 66
   257
176
     1
 43
1.0
176
     1
 76
     1
176
     1
 77
     6
176
     1
 78
     2
176
     1
 67
     7
176
     1
 79
     5
176
     1
170
     0
176
     1
171
     0
176
     1
290
     0
176
     1
 93
        1
176
     1
 44
0.0
176
     1
173
     0
176
     1
  0
VISUALSTYLE
  5
150
102
{ACAD_REACTORS
330
148
102
}
330
148
100
AcDbVisualStyle
  2
Basic
 70
     7
177
     2
291
     1
 71
     1
176
     1
 72
     0
176
     1
 73
     1
176
     1
 90
        0
176
     1
 40
-0.6
176
     1
 41
-30.0
176
     1
 62
     5
 63
     7
421
 16777215
176
     1
 74
     0
176
     1
 91
        4
176
     1
 64
     7
176
     1
 65
   257
176
     1
 75
     1
176
     1
175
     1
176
     1
 42
1.0
176
     1
 92
        8
176
     1
 66
     7
176
     1
 43
1.0
176
     1
 76
     1
176
     1
 77
     6
176
     1
 78
     2
176
     1
 67
     7
176
     1
 79
     5
176
     1
170
     0
176
     1
171
     0
176
     1
290
     0
176
     1
 93
        1
176
     1
 44
0.0
176
     1
173
     0
176
     1
  0
VISUALSTYLE
  5
154
102
{ACAD_REACTORS
330
148
102
}
330
148
100
AcDbVisualStyle
  2
Brighten
 70
    12
177
     2
291
     1
 71
     2
176
     1
 72
     2
176
     1
 73
     0
176
     1
 90
        0
176
     1
 40
-0.6
176
     1
 41
-30.0
176
     1
 62
     5
 63
     7
421
 16777215
176
     1
 74
     1
176
     1
 91
        4
176
     1
 64
     7
176
     1
 65
   257
176
     1
 75
     1
176
     1
175
     1
176
     1
 42
1.0
176
     1
 92
        8
176
     1
 66
     7
176
     1
 43
1.0
176
     1
 76
     1
176
     1
 77
     6
176
     1
 78
     2
176
     1
 67
     7
176
     1
 79
     5
176
     1
170
     0
176
     1
171
     0
176
     1
290
     0
176
     1
 93
        1
176
     1
 44
50.0
176
     1
173
     0
176
     1
  0
VISUALSTYLE
  5
158
102
{ACAD_REACTORS
330
148
102
}
330
148
100
AcDbVisualStyle
  2
ColorChange
 70
    16
177
     2
291
     1
 71
     2
176
     1
 72
     2
176
     1
 73
     3
176
     1
 90
        0
176
     1
 40
-0.6
176
     1
 41
-30.0
176
     1
 62
     5
 63
     8
421
  8421504
176
     1
 74
     1
176
     1
 91
        4
176
     1
 64
     7
176
     1
 65
   257
176
     1
 75
     1
176
     1
175
     1
176
     1
 42
1.0
176
     1
 92
        8
176
     1
 66
     8
424
  8421504
176
     1
 43
1.0
176
     1
 76
     1
176
     1
 77
     6
176
     1
 78
     2
176
     1
 67
     7
176
     1
 79
     5
176
     1
170
     0
176
     1
171
     0
176
     1
290
     0
176
     1
 93
        1
176
     1
 44
0.0
176
     1
173
     0
176
     1
  0
VISUALSTYLE
  5
152
102
{ACAD_REACTORS
330
148
102
}
330
148
100
AcDbVisualStyle
  2
Conceptual
 70
     9
177
     2
291
     0
 71
     3
176
     1
 72
     2
176
     1
 73
     0
176
     1
 90
        0
176
     1
 40
-0.6
176
     1
 41
-30.0
176
     1
 62
     5
 63
     7
421
 16777215
176
     1
 74
     2
176
     1
 91
        2
176
     1
 64
     7
176
     1
 65
   257
176
     1
 75
     1
176
     1
175
     1
176
     1
 42
40.0
176
     1
 92
        8
176
     1
 66
     7
176
     1
 43
1.0
176
     1
 76
     1
176
     1
 77
     6
176
     1
 78
     2
176
     1
 67
     7
176
     1
 79
     3
176
     1
170
     0
176
     1
171
     0
176
     1
290
     0
176
     1
 93
        1
176
     1
 44
0.0
176
     1
173
     0
176
     1
  0
VISUALSTYLE
  5
153
102
{ACAD_REACTORS
330
148
102
}
330
148
100
AcDbVisualStyle
  2
Dim
 70
    11
177
     2
291
     1
 71
     2
176
     1
 72
     2
176
     1
 73
     0
176
     1
 90
        0
176
     1
 40
-0.6
176
     1
 41
-30.0
176
     1
 62
     5
 63
     7
421
 16777215
176
     1
 74
     1
176
     1
 91
        4
176
     1
 64
     7
176
     1
 65
   257
176
     1
 75
     1
176
     1
175
     1
176
     1
 42
1.0
176
     1
 92
        8
176
     1
 66
     7
176
     1
 43
1.0
176
     1
 76
     1
176
     1
 77
     6
176
     1
 78
     2
176
     1
 67
     7
176
     1
 79
     5
176
     1
170
     0
176
     1
171
     0
176
     1
290
     0
176
     1
 93
        1
176
     1
 44
-50.0
176
     1
173
     0
176
     1
  0
VISUALSTYLE
  5
157
102
{ACAD_REACTORS
330
148
102
}
330
148
100
AcDbVisualStyle
  2
Facepattern
 70
    15
177
     2
291
     1
 71
     2
176
     1
 72
     2
176
     1
 73
     0
176
     1
 90
        0
176
     1
 40
-0.6
176
     1
 41
-30.0
176
     1
 62
     5
 63
     7
421
 16777215
176
     1
 74
     1
176
     1
 91
        4
176
     1
 64
     7
176
     1
 65
   257
176
     1
 75
     1
176
     1
175
     1
176
     1
 42
1.0
176
     1
 92
        8
176
     1
 66
     7
176
     1
 43
1.0
176
     1
 76
     1
176
     1
 77
     6
176
     1
 78
     2
176
     1
 67
     7
176
     1
 79
     5
176
     1
170
     0
176
     1
171
     0
176
     1
290
     0
176
     1
 93
        1
176
     1
 44
0.0
176
     1
173
     0
176
     1
  0
VISUALSTYLE
  5
149
102
{ACAD_REACTORS
330
148
102
}
330
148
100
AcDbVisualStyle
  2
Flat
 70
     0
177
     2
291
     1
 71
     2
176
     1
 72
     1
176
     1
 73
     1
176
     1
 90
        2
176
     1
 40
-0.6
176
     1
 41
30.0
176
     1
 62
     5
 63
     7
421
 16777215
176
     1
 74
     0
176
     1
 91
        4
176
     1
 64
     7
176
     1
 65
   257
176
     1
 75
     1
176
     1
175
     1
176
     1
 42
1.0
176
     1
 92
        8
176
     1
 66
     7
176
     1
 43
1.0
176
     1
 76
     1
176
     1
 77
     6
176
     1
 78
     2
176
     1
 67
     7
176
     1
 79
     5
176
     1
170
     0
176
     1
171
     0
176
     1
290
     0
176
     1
 93
       13
176
     1
 44
0.0
176
     1
173
     0
176
     1
  0
VISUALSTYLE
  5
14A
102
{ACAD_REACTORS
330
148
102
}
330
148
100
AcDbVisualStyle
  2
FlatWithEdges
 70
     1
177
     2
291
     1
 71
     2
176
     1
 72
     1
176
     1
 73
     1
176
     1
 90
        2
176
     1
 40
-0.6
176
     1
 41
30.0
176
     1
 62
     5
 63
     7
421
 16777215
176
     1
 74
     1
176
     1
 91
        4
176
     1
 64
     7
176
     1
 65
   257
176
     1
 75
     1
176
     1
175
     1
176
     1
 42
1.0
176
     1
 92
        0
176
     1
 66
   257
176
     1
 43
1.0
176
     1
 76
     1
176
     1
 77
     6
176
     1
 78
     2
176
     1
 67
     7
176
     1
 79
     5
176
     1
170
     0
176
     1
171
     0
176
     1
290
     0
176
     1
 93
       13
176
     1
 44
0.0
176
     1
173
     0
176
     1
  0
VISUALSTYLE
  5
14B
102
{ACAD_REACTORS
330
148
102
}
330
148
100
AcDbVisualStyle
  2
Gouraud
 70
     2
177
     2
291
     1
 71
     2
176
     1
 72
     2
176
     1
 73
     1
176
     1
 90
        2
176
     1
 40
-0.6
176
     1
 41
30.0
176
     1
 62
     5
 63
     7
421
 16777215
176
     1
 74
     0
176
     1
 91
        4
176
     1
 64
     7
176
     1
 65
   257
176
     1
 75
     1
176
     1
175
     1
176
     1
 42
1.0
176
     1
 92
        0
176
     1
 66
     7
176
     1
 43
1.0
176
     1
 76
     1
176
     1
 77
     6
176
     1
 78
     2
176
     1
 67
     7
176
     1
 79
     5
176
     1
170
     0
176
     1
171
     0
176
     1
290
     0
176
     1
 93
       13
176
     1
 44
0.0
176
     1
173
     0
176
     1
  0
VISUALSTYLE
  5
14C
102
{ACAD_REACTORS
330
148
102
}
330
148
100
AcDbVisualStyle
  2
GouraudWithEdges
 70
     3
177
     2
291
     1
 71
     2
176
     1
 72
     2
176
     1
 73
     1
176
     1
 90
        2
176
     1
 40
-0.6
176
     1
 41
30.0
176
     1
 62
     5
 63
     7
421
 16777215
176
     1
 74
     1
176
     1
 91
        4
176
     1
 64
     7
176
     1
 65
   257
176
     1
 75
     1
176
     1
175
     1
176
     1
 42
1.0
176
     1
 92
        0
176
     1
 66
   257
176
     1
 43
1.0
176
     1
 76
     1
176
     1
 77
     6
176
     1
 78
     2
176
     1
 67
     7
176
     1
 79
     5
176
     1
170
     0
176
     1
171
     0
176
     1
290
     0
176
     1
 93
       13
176
     1
 44
0.0
176
     1
173
     0
176
     1
  0
VISUALSTYLE
  5
156
102
{ACAD_REACTORS
330
148
102
}
330
148
100
AcDbVisualStyle
  2
Linepattern
 70
    14
177
     2
291
     1
 71
     2
176
     1
 72
     2
176
     1
 73
     0
176
     1
 90
        0
176
     1
 40
-0.6
176
     1
 41
-30.0
176
     1
 62
     5
 63
     7
421
 16777215
176
     1
 74
     1
176
     1
 91
        4
176
     1
 64
     7
176
     1
 65
   257
176
     1
 75
     7
176
     1
175
     7
176
     1
 42
1.0
176
     1
 92
        8
176
     1
 66
     7
176
     1
 43
1.0
176
     1
 76
     1
176
     1
 77
     6
176
     1
 78
     2
176
     1
 67
     7
176
     1
 79
     5
176
     1
170
     0
176
     1
171
     0
176
     1
290
     0
176
     1
 93
        1
176
     1
 44
0.0
176
     1
173
     0
176
     1
  0
VISUALSTYLE
  5
151
102
{ACAD_REACTORS
330
148
102
}
330
148
100
AcDbVisualStyle
  2
Realistic
 70
     8
177
     2
291
     0
 71
     2
176
     1
 72
     2
176
     1
 73
     0
176
     1
 90
        0
176
     1
 40
-0.6
176
     1
 41
-30.0
176
     1
 62
     5
 63
     7
421
 16777215
176
     1
 74
     1
176
     1
 91
        0
176
     1
 64
     7
176
     1
 65
   257
176
     1
 75
     1
176
     1
175
     1
176
     1
 42
1.0
176
     1
 92
        8
176
     1
 66
     8
424
  7895160
176
     1
 43
1.0
176
     1
 76
     1
176
     1
 77
     6
176
     1
 78
     2
176
     1
 67
     7
176
     1
 79
     5
176
     1
170
     0
176
     1
171
     0
176
     1
290
     0
176
     1
 93
       13
176
     1
 44
0.0
176
     1
173
     0
176
     1
  0
VISUALSTYLE
  5
155
102
{ACAD_REACTORS
330
148
102
}
330
148
100
AcDbVisualStyle
  2
Thicken
 70
    13
177
     2
291
     1
 71
     2
176
     1
 72
     2
176
     1
 73
     0
176
     1
 90
        0
176
     1
 40
-0.6
176
     1
 41
-30.0
176
     1
 62
     5
 63
     7
421
 16777215
176
     1
 74
     1
176
     1
 91
        4
176
     1
 64
     7
176
     1
 65
   257
176
     1
 75
     1
176
     1
175
     1
176
     1
 42
1.0
176
     1
 92
       12
176
     1
 66
     7
176
     1
 43
1.0
176
     1
 76
     1
176
     1
 77
     6
176
     1
 78
     2
176
     1
 67
     7
176
     1
 79
     5
176
     1
170
     0
176
     1
171
     0
176
     1
290
     0
176
     1
 93
        1
176
     1
 44
0.0
176
     1
173
     0
176
     1
  0
XRECORD
  5
16E
102
{ACAD_REACTORS
330
15E
102
}
330
15E
100
AcDbXrecord
280
     1
290
     1
  0
XRECORD
  5
167
102
{ACAD_REACTORS
330
15E
102
}
330
15E
100
AcDbXrecord
280
     1
1000
auto
  0
XRECORD
  5
168
102
{ACAD_REACTORS
330
15E
102
}
330
15E
100
AcDbXrecord
280
     1
1000
auto
  0
XRECORD
  5
162
102
{ACAD_REACTORS
330
15E
102
}
330
15E
100
AcDbXrecord
280
     1
1000
auto
  0
XRECORD
  5
165
102
{ACAD_REACTORS
330
15E
102
}
330
15E
100
AcDbXrecord
280
     1
1000
auto
  0
XRECORD
  5
166
102
{ACAD_REACTORS
330
15E
102
}
330
15E
100
AcDbXrecord
280
     1
 90
        1
  0
XRECORD
  5
16B
102
{ACAD_REACTORS
330
15E
102
}
330
15E
100
AcDbXrecord
280
     1
 40
10.0
  0
XRECORD
  5
169
102
{ACAD_REACTORS
330
15E
102
}
330
15E
100
AcDbXrecord
280
     1
 40
10.0
  0
XRECORD
  5
15F
102
{ACAD_REACTORS
330
15E
102
}
330
15E
100
AcDbXrecord
280
     1
 40
10.0
  0
XRECORD
  5
172
102
{ACAD_REACTORS
330
15E
102
}
330
15E
100
AcDbXrecord
280
     1
 40
10.0
  0
XRECORD
  5
161
102
{ACAD_REACTORS
330
15E
102
}
330
15E
100
AcDbXrecord
280
     1
290
     0
  0
XRECORD
  5
16A
102
{ACAD_REACTORS
330
15E
102
}
330
15E
100
AcDbXrecord
280
     1
 90
        1
  0
XRECORD
  5
170
102
{ACAD_REACTORS
330
15E
102
}
330
15E
100
AcDbXrecord
280
     1
 40
-13.43213728549139
  0
XRECORD
  5
171
102
{ACAD_REACTORS
330
15E
102
}
330
15E
100
AcDbXrecord
280
     1
 40
25.88143525741032
  0
XRECORD
  5
160
102
{ACAD_REACTORS
330
15E
102
}
330
15E
100
AcDbXrecord
280
     1
1000
Landscape
  0
XRECORD
  5
163
102
{ACAD_REACTORS
330
15E
102
}
330
15E
100
AcDbXrecord
280
     1
 40
297.0
  0
XRECORD
  5
16C
102
{ACAD_REACTORS
330
15E
102
}
330
15E
100
AcDbXrecord
280
     1
 40
210.0
  0
XRECORD
  5
164
102
{ACAD_REACTORS
330
15E
102
}
330
15E
100
AcDbXrecord
280
     1
1000
1
  0
XRECORD
  5
16F
102
{ACAD_REACTORS
330
15E
102
}
330
15E
100
AcDbXrecord
280
     1
290
     1
  0
XRECORD
  5
16D
102
{ACAD_REACTORS
330
15E
102
}
330
15E
100
AcDbXrecord
280
     1
 90
        4
  0
ENDSEC
  0
EOF
