  0
SECTION
  2
HEADER
  9
$ACADVER
  1
AC1009
  9
$DWGCODEPAGE
  3
ascii
  9
$INSBASE
 10
0.0
 20
0.0
 30
0.0
  9
$EXTMIN
 10
1.000000000000000E+20
 20
1.000000000000000E+20
 30
1.000000000000000E+20
  9
$EXTMAX
 10
-1.000000000000000E+20
 20
-1.000000000000000E+20
 30
-1.000000000000000E+20
  9
$LIMMIN
 10
0.0
 20
0.0
  9
$LIMMAX
 10
12.0
 20
9.0
  9
$ORTHOMODE
 70
     0
  9
$REGENMODE
 70
     1
  9
$FILLMODE
 70
     1
  9
$QTEXTMODE
 70
     0
  9
$MIRRTEXT
 70
     1
  9
$DRAGMODE
 70
     2
  9
$LTSCALE
 40
1.0
  9
$OSMODE
 70
    37
  9
$ATTMODE
 70
     1
  9
$TEXTSIZE
 40
2.5
  9
$TRACEWID
 40
0.05
  9
$TEXTSTYLE
  7
STANDARD
  9
$CLAYER
  8
0
  9
$CELTYPE
  6
BYLAYER
  9
$CECOLOR
 62
   178
  9
$DIMSCALE
 40
1.0
  9
$DIMASZ
 40
2.5
  9
$DIMEXO
 40
0.625
  9
$DIMDLI
 40
0.38
  9
$DIMRND
 40
0.0
  9
$DIMDLE
 40
0.0
  9
$DIMEXE
 40
1.25
  9
$DIMTP
 40
0.0
  9
$DIMTM
 40
0.0
  9
$DIMTXT
 40
2.5
  9
$DIMCEN
 40
0.09
  9
$DIMTSZ
 40
0.0
  9
$DIMTOL
 70
     0
  9
$DIMLIM
 70
     0
  9
$DIMTIH
 70
     1
  9
$DIMTOH
 70
     1
  9
$DIMSE1
 70
     0
  9
$DIMSE2
 70
     0
  9
$DIMTAD
 70
     0
  9
$DIMZIN
 70
     8
  9
$DIMBLK
  1

  9
$DIMASO
 70
     1
  9
$DIMSHO
 70
     1
  9
$DIMPOST
  1

  9
$DIMAPOST
  1

  9
$DIMALT
 70
     0
  9
$DIMALTD
 70
     2
  9
$DIMALTF
 40
25.4
  9
$DIMLFAC
 40
1.0
  9
$DIMTOFL
 70
     0
  9
$DIMTVP
 40
0.0
  9
$DIMTIX
 70
     0
  9
$DIMSOXD
 70
     0
  9
$DIMSAH
 70
     0
  9
$DIMBLK1
  1

  9
$DIMBLK2
  1

  9
$DIMSTYLE
  2
STANDARD
  9
$DIMCLRD
 70
   178
  9
$DIMCLRE
 70
   178
  9
$DIMCLRT
 70
   178
  9
$DIMTFAC
 40
1.0
  9
$DIMGAP
 40
0.625
  9
$LUNITS
 70
     2
  9
$LUPREC
 70
     4
  9
$SKETCHINC
 40
0.1
  9
$FILLETRAD
 40
0.5
  9
$AUNITS
 70
     0
  9
$AUPREC
 70
     2
  9
$MENU
  1
.
  9
$ELEVATION
 40
0.0
  9
$PELEVATION
 40
0.0
  9
$THICKNESS
 40
0.0
  9
$LIMCHECK
 70
     0
  9
$CHAMFERA
 40
0.5
  9
$CHAMFERB
 40
0.5
  9
$SKPOLY
 70
     0
  9
$TDCREATE
 40
2456437.752696748
  9
$TDUPDATE
 40
2456437.752696748
  9
$TDINDWG
 40
0.0000000116
  9
$TDUSRTIMER
 40
0.0000000116
  9
$USRTIMER
 70
     1
  9
$ANGBASE
 50
0.0
  9
$ANGDIR
 70
     0
  9
$PDMODE
 70
     0
  9
$PDSIZE
 40
0.0
  9
$PLINEWID
 40
0.0
  9
$COORDS
 70
     1
  9
$SPLFRAME
 70
     0
  9
$SPLINETYPE
 70
     6
  9
$SPLINESEGS
 70
     8
  9
$ATTDIA
 70
     0
  9
$ATTREQ
 70
     1
  9
$HANDLING
 70
     1
  9
$HANDSEED
  5
195
  9
$SURFTAB1
 70
     6
  9
$SURFTAB2
 70
     6
  9
$SURFTYPE
 70
     6
  9
$SURFU
 70
     6
  9
$SURFV
 70
     6
  9
$UCSNAME
  2

  9
$UCSORG
 10
0.0
 20
0.0
 30
0.0
  9
$UCSXDIR
 10
1.0
 20
0.0
 30
0.0
  9
$UCSYDIR
 10
0.0
 20
1.0
 30
0.0
  9
$PUCSNAME
  2

  9
$PUCSORG
 10
0.0
 20
0.0
 30
0.0
  9
$PUCSXDIR
 10
1.0
 20
0.0
 30
0.0
  9
$PUCSYDIR
 10
0.0
 20
1.0
 30
0.0
  9
$USERI1
 70
     0
  9
$USERI2
 70
     0
  9
$USERI3
 70
     0
  9
$USERI4
 70
     0
  9
$USERI5
 70
     0
  9
$USERR1
 40
0.0
  9
$USERR2
 40
0.0
  9
$USERR3
 40
0.0
  9
$USERR4
 40
0.0
  9
$USERR5
 40
0.0
  9
$WORLDVIEW
 70
     1
  9
$SHADEDGE
 70
     3
  9
$SHADEDIF
 70
    70
  9
$TILEMODE
 70
     1
  9
$MAXACTVP
 70
    64
  9
$PLIMCHECK
 70
     0
  9
$PEXTMIN
 10
1.000000000000000E+20
 20
1.000000000000000E+20
 30
1.000000000000000E+20
  9
$PEXTMAX
 10
-1.000000000000000E+20
 20
-1.000000000000000E+20
 30
-1.000000000000000E+20
  9
$PLIMMIN
 10
0.0
 20
0.0
  9
$PLIMMAX
 10
297.0
 20
210.0
  9
$UNITMODE
 70
     0
  9
$VISRETAIN
 70
     1
  9
$PLINEGEN
 70
     0
  9
$PSLTSCALE
 70
     1
  0
ENDSEC
  0
SECTION
  2
TABLES
  0
TABLE
  2
VPORT
 70
     1
  0
VPORT
  2
*ACTIVE
 70
     0
 10
0.0
 20
0.0
 11
1.0
 21
1.0
 12
10.42990654205607
 22
4.5
 13
0.0
 23
0.0
 14
0.5
 24
0.5
 15
0.5
 25
0.5
 16
0.0
 26
0.0
 36
1.0
 17
0.0
 27
0.0
 37
0.0
 40
9.0
 41
1.972972972850329
 42
50.0
 43
0.0
 44
0.0
 50
0.0
 51
0.0
 71
     0
 72
   100
 73
     1
 74
     3
 75
     0
 76
     0
 77
     0
 78
     0
  0
ENDTAB
  0
TABLE
  2
LTYPE
 70
    19
  0
LTYPE
  2
CONTINUOUS
 70
     0
  3
Solid line
 72
    65
 73
     0
 40
0.0
  0
LTYPE
  2
BORDER
 70
     0
  3

 72
    65
 73
     6
 40
42.0
 49
12.0
 49
-6.0
 49
12.0
 49
-5.95
 49
0.1
 49
-5.95
  0
LTYPE
  2
BORDER2
 70
     0
  3

 72
    65
 73
     6
 40
21.0
 49
6.0
 49
-3.0
 49
6.0
 49
-2.95
 49
0.1
 49
-2.95
  0
LTYPE
  2
BORDERX2
 70
     0
  3

 72
    65
 73
     6
 40
84.0
 49
24.0
 49
-12.0
 49
24.0
 49
-11.95
 49
0.1
 49
-11.95
  0
LTYPE
  2
CENTER
 70
     0
  3

 72
    65
 73
     4
 40
50.0
 49
32.0
 49
-6.0
 49
6.0
 49
-6.0
  0
LTYPE
  2
CENTER2
 70
     0
  3

 72
    65
 73
     4
 40
25.0
 49
16.0
 49
-3.0
 49
3.0
 49
-3.0
  0
LTYPE
  2
CENTERX2
 70
     0
  3

 72
    65
 73
     4
 40
100.0
 49
64.0
 49
-12.0
 49
12.0
 49
-12.0
  0
LTYPE
  2
DASHDOT
 70
     0
  3

 72
    65
 73
     4
 40
24.0
 49
12.0
 49
-5.95
 49
0.1
 49
-5.95
  0
LTYPE
  2
DASHDOT2
 70
     0
  3

 72
    65
 73
     4
 40
12.0
 49
6.0
 49
-2.95
 49
0.1
 49
-2.95
  0
LTYPE
  2
DASHDOTX2
 70
     0
  3

 72
    65
 73
     4
 40
48.0
 49
24.0
 49
-11.95
 49
0.1
 49
-11.95
  0
LTYPE
  2
DASHED
 70
     0
  3

 72
    65
 73
     2
 40
18.0
 49
12.0
 49
-6.0
  0
LTYPE
  2
DASHED2
 70
     0
  3

 72
    65
 73
     2
 40
9.0
 49
6.0
 49
-3.0
  0
LTYPE
  2
DASHEDX2
 70
     0
  3

 72
    65
 73
     2
 40
36.0
 49
24.0
 49
-12.0
  0
LTYPE
  2
DIVIDE
 70
     0
  3

 72
    65
 73
     6
 40
30.0
 49
12.0
 49
-5.9
 49
0.15
 49
-5.9
 49
0.15
 49
-5.9
  0
LTYPE
  2
DIVIDE2
 70
     0
  3

 72
    65
 73
     6
 40
15.0
 49
6.0
 49
-2.9
 49
0.15
 49
-2.9
 49
0.15
 49
-2.9
  0
LTYPE
  2
DIVIDEX2
 70
     0
  3

 72
    65
 73
     6
 40
60.0
 49
24.0
 49
-11.9
 49
0.15
 49
-11.9
 49
0.15
 49
-11.9
  0
LTYPE
  2
DOT
 70
     0
  3

 72
    65
 73
     2
 40
6.3
 49
0.1
 49
-6.2
  0
LTYPE
  2
DOT2
 70
     0
  3

 72
    65
 73
     2
 40
3.2
 49
0.1
 49
-3.1
  0
LTYPE
  2
DOTX2
 70
     0
  3

 72
    65
 73
     2
 40
12.5
 49
0.1
 49
-12.4
  0
ENDTAB
  0
TABLE
  2
LAYER
 70
     5
  0
LAYER
  2
0
 70
     0
 62
     7
  6
CONTINUOUS
  0
LAYER
  2
FRONT
 70
     0
 62
     7
  6
CONTINUOUS
  0
LAYER
  2
BACK
 70
     0
 62
     7
  6
CONTINUOUS
  0
LAYER
  2
LEFT
 70
     0
 62
     7
  6
CONTINUOUS
  0
LAYER
  2
RIGHT
 70
     0
 62
     7
  6
CONTINUOUS
  0
ENDTAB
  0
TABLE
  2
STYLE
 70
     2
  0
STYLE
  2
STANDARD
 70
     0
 40
0.0
 41
1.0
 50
0.0
 71
     0
 42
2.5
  3
txt
  4

  0
STYLE
  2
TEXTSTYLE0
 70
     0
 40
0.0
 41
1.0
 50
0.0
 71
     0
 42
0.2
  3
Standard
  4

  0
ENDTAB
  0
TABLE
  2
VIEW
 70
     0
  0
ENDTAB
  0
TABLE
  2
UCS
 70
     0
  0
ENDTAB
  0
TABLE
  2
APPID
 70
     2
  0
APPID
  2
ACAD
 70
     0
  0
APPID
  2
QCAD
 70
     0
  0
ENDTAB
  0
TABLE
  2
DIMSTYLE
 70
     2
  0
DIMSTYLE
  2
STANDARD
 70
     0
  3

  4

  5

  6

  7

 40
1.0
 41
0.18
 42
0.0625
 43
0.38
 44
0.18
 45
0.0
 46
0.0
 47
0.0
 48
0.0
140
0.18
141
0.09
142
0.0
143
25.4
144
1.0
145
0.0
146
1.0
147
0.09
 71
     0
 72
     0
 73
     1
 74
     1
 75
     0
 76
     0
 77
     0
 78
     0
170
     0
171
     2
172
     0
173
     0
174
     0
175
     0
176
     0
177
     0
178
     0
  0
DIMSTYLE
  2
QCADDIMSTYLE
 70
     0
  3

  4

  5

  6

  7

 40
1.0
 41
2.5
 42
0.625
 43
0.38
 44
1.25
 45
0.0
 46
0.0
 47
0.0
 48
0.0
140
2.5
141
0.09
142
0.0
143
25.4
144
1.0
145
0.0
146
1.0
147
0.625
 71
     0
 72
     0
 73
     0
 74
     1
 75
     0
 76
     0
 77
     1
 78
     0
170
     0
171
     2
172
     0
173
     0
174
     0
175
     0
176
     0
177
     0
178
     0
  0
ENDTAB
  0
ENDSEC
  0
SECTION
  2
BLOCKS
  0
BLOCK
  8
0
  2
$MODEL_SPACE
 70
     0
 10
0.0
 20
0.0
 30
0.0
  3
$MODEL_SPACE
  1

  0
ENDBLK
  5
13F
  8
0
  0
BLOCK
 67
     1
  8
0
  2
$PAPER_SPACE
 70
     0
 10
0.0
 20
0.0
 30
0.0
  3
$PAPER_SPACE
  1

  0
ENDBLK
  5
13B
 67
     1
  8
0
  0
BLOCK
  8
0
  2
*X1
 70
     1
 10
0.0
 20
0.0
 30
0.0
  3
*X1
  1

  0
TEXT
  5
191
  8
0
  6
CONTINUOUS
 10
180.6220563108238
 20
182.5308669489636
 30
0.0
 40
4.0
  1
Aluminium silber eloxiert.
  7
TEXTSTYLE0
  0
TEXT
  5
192
  8
0
  6
CONTINUOUS
 10
180.0506277393953
 20
175.864200282297
 30
0.0
 40
4.0
  1
R\U+00E4nder blank.
  7
TEXTSTYLE0
  0
ENDBLK
  5
194
  8
0
  0
ENDSEC
  0
SECTION
  2
ENTITIES
  0
LINE
  5
44
  8
FRONT
 10
20.0
 20
39.0
 30
0.0
 11
258.0
 21
39.0
 31
0.0
  0
LINE
  5
45
  8
FRONT
 10
258.0
 20
39.0
 30
0.0
 11
258.0
 21
71.0
 31
0.0
  0
LINE
  5
46
  8
FRONT
 10
258.0
 20
71.0
 30
0.0
 11
20.0
 21
71.0
 31
0.0
  0
LINE
  5
47
  8
FRONT
 10
20.0
 20
71.0
 30
0.0
 11
20.0
 21
39.0
 31
0.0
  0
LINE
  5
48
  8
BACK
 10
20.0
 20
89.0
 30
0.0
 11
258.0
 21
89.0
 31
0.0
  0
LINE
  5
49
  8
BACK
 10
258.0
 20
89.0
 30
0.0
 11
258.0
 21
121.0
 31
0.0
  0
LINE
  5
4A
  8
BACK
 10
258.0
 20
121.0
 30
0.0
 11
20.0
 21
121.0
 31
0.0
  0
LINE
  5
4B
  8
BACK
 10
20.0
 20
121.0
 30
0.0
 11
20.0
 21
89.0
 31
0.0
  0
LINE
  5
4C
  8
RIGHT
 10
20.0
 20
139.0
 30
0.0
 11
160.0
 21
139.0
 31
0.0
  0
LINE
  5
4D
  8
RIGHT
 10
160.0
 20
139.0
 30
0.0
 11
160.0
 21
171.0
 31
0.0
  0
LINE
  5
4E
  8
RIGHT
 10
160.0
 20
171.0
 30
0.0
 11
20.0
 21
171.0
 31
0.0
  0
LINE
  5
4F
  8
RIGHT
 10
20.0
 20
171.0
 30
0.0
 11
20.0
 21
139.0
 31
0.0
  0
LINE
  5
50
  8
LEFT
 10
20.0
 20
189.0
 30
0.0
 11
160.0
 21
189.0
 31
0.0
  0
LINE
  5
51
  8
LEFT
 10
160.0
 20
189.0
 30
0.0
 11
160.0
 21
221.0
 31
0.0
  0
LINE
  5
52
  8
LEFT
 10
160.0
 20
221.0
 30
0.0
 11
20.0
 21
221.0
 31
0.0
  0
LINE
  5
53
  8
LEFT
 10
20.0
 20
221.0
 30
0.0
 11
20.0
 21
189.0
 31
0.0
  0
LINE
  5
58
  8
LEFT
 10
117.4499999998203
 20
211.5
 30
0.0
 11
131.1500000001798
 21
211.4999999999999
 31
0.0
  0
LINE
  5
5B
  8
LEFT
 10
118.2611041110793
 20
200.1
 30
0.0
 11
130.3388958889208
 21
200.1
 31
0.0
  0
ARC
  5
5C
  8
LEFT
 10
130.3388958889208
 20
203.5
 30
0.0
 40
3.399999999999999
 50
270.0
 51
349.9999999999993
  0
LINE
  5
5D
  8
LEFT
 10
134.4983463604212
 20
207.5095961959323
 30
0.0
 11
133.6872422491622
 21
202.9095961959324
 31
0.0
  0
ARC
  5
5E
  8
LEFT
 10
131.1500000001798
 20
208.0999999999999
 30
0.0
 40
3.399999999999999
 50
349.9999999999995
 51
89.99999999999991
  0
ARC
  5
5F
  8
LEFT
 10
117.4499999998203
 20
208.1
 30
0.0
 40
3.399999999999999
 50
89.99999999999991
 51
189.9999999999998
  0
LINE
  5
60
  8
LEFT
 10
114.1016536395789
 20
207.5095961959324
 30
0.0
 11
114.9127577508377
 21
202.9095961959324
 31
0.0
  0
ARC
  5
61
  8
LEFT
 10
118.2611041110793
 20
203.5
 30
0.0
 40
3.399999999999999
 50
190.0
 51
270.0
  0
LINE
  5
62
  8
LEFT
 10
85.74999999982033
 20
211.5
 30
0.0
 11
99.45000000017976
 21
211.4999999999999
 31
0.0
  0
LINE
  5
65
  8
LEFT
 10
86.56110411107925
 20
200.1
 30
0.0
 11
98.63889588892076
 21
200.1
 31
0.0
  0
ARC
  5
66
  8
LEFT
 10
98.63889588892076
 20
203.5
 30
0.0
 40
3.399999999999999
 50
270.0
 51
349.9999999999993
  0
LINE
  5
67
  8
LEFT
 10
102.7983463604212
 20
207.5095961959323
 30
0.0
 11
101.9872422491622
 21
202.9095961959324
 31
0.0
  0
ARC
  5
68
  8
LEFT
 10
99.45000000017976
 20
208.0999999999999
 30
0.0
 40
3.399999999999999
 50
349.9999999999995
 51
89.99999999999991
  0
ARC
  5
69
  8
LEFT
 10
85.74999999982033
 20
208.1
 30
0.0
 40
3.399999999999999
 50
89.99999999999991
 51
189.9999999999998
  0
LINE
  5
6A
  8
LEFT
 10
82.40165363957884
 20
207.5095961959324
 30
0.0
 11
83.21275775083772
 21
202.9095961959324
 31
0.0
  0
ARC
  5
6B
  8
LEFT
 10
86.56110411107925
 20
203.5
 30
0.0
 40
3.399999999999999
 50
190.0
 51
270.0
  0
CIRCLE
  5
6C
  8
LEFT
 10
79.89999999999999
 20
205.8
 30
0.0
 40
1.6
  0
CIRCLE
  5
6D
  8
LEFT
 10
105.3
 20
205.8
 30
0.0
 40
1.6
  0
CIRCLE
  5
6E
  8
LEFT
 10
137.0
 20
205.8
 30
0.0
 40
1.6
  0
CIRCLE
  5
6F
  8
LEFT
 10
111.6
 20
205.8
 30
0.0
 40
1.6
  0
LINE
  5
70
  8
RIGHT
 10
45.9
 20
149.5
 30
0.0
 11
71.5
 21
149.5
 31
0.0
  0
LINE
  5
71
  8
RIGHT
 10
73.0
 20
151.0
 30
0.0
 11
73.0
 21
157.7
 31
0.0
  0
LINE
  5
72
  8
RIGHT
 10
71.5
 20
159.2
 30
0.0
 11
45.9
 21
159.2
 31
0.0
  0
LINE
  5
73
  8
RIGHT
 10
44.4
 20
157.7
 30
0.0
 11
44.4
 21
151.0
 31
0.0
  0
CIRCLE
  5
74
  8
RIGHT
 10
79.5
 20
156.7
 30
0.0
 40
4.0
  0
LINE
  5
77
  8
RIGHT
 10
87.0
 20
149.5
 30
0.0
 11
114.0
 21
149.5
 31
0.0
  0
LINE
  5
78
  8
RIGHT
 10
115.5
 20
151.0
 30
0.0
 11
115.5
 21
161.0
 31
0.0
  0
LINE
  5
79
  8
RIGHT
 10
114.0
 20
162.5
 30
0.0
 11
87.0
 21
162.5
 31
0.0
  0
CIRCLE
  5
7C
  8
RIGHT
 10
122.6
 20
156.0
 30
0.0
 40
6.0
  0
CIRCLE
  5
7D
  8
RIGHT
 10
137.0
 20
156.0
 30
0.0
 40
6.0
  0
LINE
  5
7E
  8
BACK
 10
257.0
 20
90.0
 30
0.0
 11
257.0
 21
90.0
 31
0.0
  0
LINE
  5
7F
  8
BACK
 10
257.0
 20
90.0
 30
0.0
 11
257.0
 21
90.0
 31
0.0
  0
LINE
  5
80
  8
BACK
 10
179.7499999998203
 20
111.5
 30
0.0
 11
193.4500000001798
 21
111.4999999999999
 31
0.0
  0
LINE
  5
83
  8
BACK
 10
180.5611041110793
 20
100.1
 30
0.0
 11
192.6388958889208
 21
100.1
 31
0.0
  0
ARC
  5
84
  8
BACK
 10
192.6388958889208
 20
103.5
 30
0.0
 40
3.399999999999999
 50
270.0
 51
349.9999999999993
  0
LINE
  5
85
  8
BACK
 10
196.7983463604212
 20
107.5095961959323
 30
0.0
 11
195.9872422491623
 21
102.9095961959324
 31
0.0
  0
ARC
  5
86
  8
BACK
 10
193.4500000001798
 20
108.0999999999999
 30
0.0
 40
3.399999999999999
 50
349.9999999999995
 51
89.99999999999991
  0
ARC
  5
87
  8
BACK
 10
179.7499999998203
 20
108.1
 30
0.0
 40
3.399999999999999
 50
89.99999999999991
 51
189.9999999999998
  0
LINE
  5
88
  8
BACK
 10
176.4016536395789
 20
107.5095961959324
 30
0.0
 11
177.2127577508378
 21
102.9095961959324
 31
0.0
  0
ARC
  5
89
  8
BACK
 10
180.5611041110793
 20
103.5
 30
0.0
 40
3.399999999999999
 50
190.0
 51
270.0
  0
CIRCLE
  5
8A
  8
BACK
 10
199.3
 20
105.8
 30
0.0
 40
1.6
  0
CIRCLE
  5
8B
  8
BACK
 10
173.9
 20
105.8
 30
0.0
 40
1.6
  0
LINE
  5
8C
  8
BACK
 10
147.4499999998203
 20
111.5
 30
0.0
 11
161.1500000001798
 21
111.4999999999999
 31
0.0
  0
LINE
  5
8F
  8
BACK
 10
148.2611041110793
 20
100.1
 30
0.0
 11
160.3388958889208
 21
100.1
 31
0.0
  0
ARC
  5
90
  8
BACK
 10
160.3388958889208
 20
103.5
 30
0.0
 40
3.399999999999999
 50
270.0
 51
349.9999999999993
  0
LINE
  5
91
  8
BACK
 10
164.4983463604212
 20
107.5095961959323
 30
0.0
 11
163.6872422491622
 21
102.9095961959324
 31
0.0
  0
ARC
  5
92
  8
BACK
 10
161.1500000001798
 20
108.0999999999999
 30
0.0
 40
3.399999999999999
 50
349.9999999999995
 51
89.99999999999991
  0
ARC
  5
93
  8
BACK
 10
147.4499999998203
 20
108.1
 30
0.0
 40
3.399999999999999
 50
89.99999999999991
 51
189.9999999999998
  0
LINE
  5
94
  8
BACK
 10
144.1016536395789
 20
107.5095961959324
 30
0.0
 11
144.9127577508378
 21
102.9095961959324
 31
0.0
  0
ARC
  5
95
  8
BACK
 10
148.2611041110793
 20
103.5
 30
0.0
 40
3.399999999999999
 50
190.0
 51
270.0
  0
CIRCLE
  5
96
  8
BACK
 10
167.0
 20
105.8
 30
0.0
 40
1.6
  0
CIRCLE
  5
97
  8
BACK
 10
141.6
 20
105.8
 30
0.0
 40
1.6
  0
LINE
  5
98
  8
BACK
 10
212.0519622148202
 20
111.5
 30
0.0
 11
247.7480377851797
 21
111.4999999999999
 31
0.0
  0
ARC
  5
99
  8
BACK
 10
247.7480377851797
 20
108.1
 30
0.0
 40
3.399999999999999
 50
349.9999999999995
 51
89.99999999999991
  0
ARC
  5
9B
  8
BACK
 10
246.9369336739207
 20
103.5
 30
0.0
 40
3.399999999999999
 50
270.0
 51
349.9999999999993
  0
LINE
  5
9C
  8
BACK
 10
212.8630663260792
 20
100.1
 30
0.0
 11
246.9369336739207
 21
100.1
 31
0.0
  0
ARC
  5
9E
  8
BACK
 10
212.8630663260792
 20
103.5
 30
0.0
 40
3.399999999999999
 50
190.0
 51
270.0
  0
LINE
  5
9F
  8
BACK
 10
208.7036158545787
 20
107.5095961959324
 30
0.0
 11
209.5147199658377
 21
102.9095961959325
 31
0.0
  0
ARC
  5
A0
  8
BACK
 10
212.0519622148202
 20
108.1
 30
0.0
 40
3.399999999999999
 50
89.99999999999991
 51
189.9999999999998
  0
LINE
  5
A1
  8
BACK
 10
251.0963841454212
 20
107.5095961959323
 30
0.0
 11
250.2852800341622
 21
102.9095961959324
 31
0.0
  0
CIRCLE
  5
A2
  8
BACK
 10
206.5019622149999
 20
105.8000000000001
 30
0.0
 40
1.6
  0
CIRCLE
  5
A3
  8
BACK
 10
253.2980377849999
 20
105.8
 30
0.0
 40
1.6
  0
LINE
  5
A4
  8
BACK
 10
71.45196221482021
 20
111.5
 30
0.0
 11
107.1480377851797
 21
111.4999999999999
 31
0.0
  0
ARC
  5
A5
  8
BACK
 10
107.1480377851797
 20
108.1
 30
0.0
 40
3.399999999999999
 50
349.9999999999995
 51
89.99999999999991
  0
ARC
  5
A7
  8
BACK
 10
106.3369336739207
 20
103.5
 30
0.0
 40
3.399999999999999
 50
270.0
 51
349.9999999999993
  0
LINE
  5
A8
  8
BACK
 10
72.26306632607921
 20
100.1
 30
0.0
 11
106.3369336739207
 21
100.1
 31
0.0
  0
ARC
  5
AA
  8
BACK
 10
72.26306632607921
 20
103.5
 30
0.0
 40
3.399999999999999
 50
190.0
 51
270.0
  0
LINE
  5
AB
  8
BACK
 10
68.10361585457872
 20
107.5095961959324
 30
0.0
 11
68.91471996583772
 21
102.9095961959325
 31
0.0
  0
ARC
  5
AC
  8
BACK
 10
71.45196221482021
 20
108.1
 30
0.0
 40
3.399999999999999
 50
89.99999999999991
 51
189.9999999999998
  0
LINE
  5
AD
  8
BACK
 10
110.4963841454212
 20
107.5095961959323
 30
0.0
 11
109.6852800341622
 21
102.9095961959324
 31
0.0
  0
CIRCLE
  5
AE
  8
BACK
 10
65.90196221499988
 20
105.8000000000001
 30
0.0
 40
1.6
  0
CIRCLE
  5
AF
  8
BACK
 10
112.6980377849999
 20
105.8
 30
0.0
 40
1.6
  0
LINE
  5
B0
  8
BACK
 10
26.55165363957871
 20
107.5095961959324
 30
0.0
 11
27.36275775083771
 21
102.9095961959324
 31
0.0
  0
ARC
  5
B1
  8
BACK
 10
29.89999999982029
 20
108.1
 30
0.0
 40
3.399999999999999
 50
89.99999999999991
 51
189.9999999999998
  0
LINE
  5
B2
  8
BACK
 10
29.89999999982029
 20
111.5
 30
0.0
 11
51.90000000017972
 21
111.4999999999999
 31
0.0
  0
ARC
  5
B3
  8
BACK
 10
51.90000000017972
 20
108.0999999999999
 30
0.0
 40
3.399999999999999
 50
349.9999999999995
 51
89.99999999999991
  0
LINE
  5
B4
  8
BACK
 10
55.24834636042121
 20
107.5095961959323
 30
0.0
 11
54.4372422491622
 21
102.9095961959324
 31
0.0
  0
ARC
  5
B6
  8
BACK
 10
51.08889588892072
 20
103.5
 30
0.0
 40
3.399999999999999
 50
270.0
 51
349.9999999999993
  0
LINE
  5
B7
  8
BACK
 10
30.7111041110792
 20
100.1
 30
0.0
 11
51.0888958889207
 21
100.1
 31
0.0
  0
ARC
  5
B9
  8
BACK
 10
30.7111041110792
 20
103.5
 30
0.0
 40
3.399999999999999
 50
190.0
 51
270.0
  0
CIRCLE
  5
BA
  8
BACK
 10
57.60000000000001
 20
105.8
 30
0.0
 40
1.6
  0
CIRCLE
  5
BB
  8
BACK
 10
24.20000000000001
 20
105.8
 30
0.0
 40
1.6
  0
CIRCLE
  5
BC
  8
BACK
 10
127.3
 20
109.6
 30
0.0
 40
8.0
  0
CIRCLE
  5
BD
  8
FRONT
 10
31.9
 20
57.12
 30
0.0
 40
1.6
  0
CIRCLE
  5
BE
  8
FRONT
 10
31.9
 20
52.04
 30
0.0
 40
1.6
  0
CIRCLE
  5
BF
  8
FRONT
 10
37.0
 20
57.12
 30
0.0
 40
1.6
  0
CIRCLE
  5
C0
  8
FRONT
 10
37.0
 20
52.04
 30
0.0
 40
1.6
  0
CIRCLE
  5
C1
  8
FRONT
 10
42.1
 20
57.12
 30
0.0
 40
1.6
  0
CIRCLE
  5
C2
  8
FRONT
 10
42.1
 20
52.04
 30
0.0
 40
1.6
  0
CIRCLE
  5
C3
  8
FRONT
 10
47.2
 20
57.12
 30
0.0
 40
1.6
  0
CIRCLE
  5
C4
  8
FRONT
 10
47.2
 20
52.04
 30
0.0
 40
1.6
  0
CIRCLE
  5
C5
  8
FRONT
 10
52.3
 20
57.12
 30
0.0
 40
1.6
  0
CIRCLE
  5
C6
  8
FRONT
 10
52.3
 20
52.04
 30
0.0
 40
1.6
  0
LINE
  5
C7
  8
FRONT
 10
86.5
 20
51.1
 30
0.0
 11
93.5
 21
51.1
 31
0.0
  0
LINE
  5
C8
  8
FRONT
 10
95.0
 20
52.6
 30
0.0
 11
95.0
 21
58.3
 31
0.0
  0
LINE
  5
C9
  8
FRONT
 10
93.5
 20
59.8
 30
0.0
 11
86.5
 21
59.8
 31
0.0
  0
LINE
  5
CA
  8
FRONT
 10
85.0
 20
58.3
 30
0.0
 11
85.0
 21
52.6
 31
0.0
  0
CIRCLE
  5
CB
  8
FRONT
 10
116.7
 20
52.7
 30
0.0
 40
3.2
  0
CIRCLE
  5
CC
  8
FRONT
 10
129.3
 20
52.7
 30
0.0
 40
3.2
  0
CIRCLE
  5
CD
  8
FRONT
 10
141.8
 20
52.7
 30
0.0
 40
3.2
  0
CIRCLE
  5
CE
  8
FRONT
 10
154.2
 20
52.7
 30
0.0
 40
3.2
  0
CIRCLE
  5
CF
  8
FRONT
 10
166.6
 20
52.7
 30
0.0
 40
3.2
  0
LINE
  5
D0
  8
FRONT
 10
177.7
 20
51.0
 30
0.0
 11
219.7
 21
51.0
 31
0.0
  0
LINE
  5
D1
  8
FRONT
 10
221.2
 20
52.5
 30
0.0
 11
221.2
 21
54.7
 31
0.0
  0
LINE
  5
D2
  8
FRONT
 10
219.7
 20
56.2
 30
0.0
 11
177.7
 21
56.2
 31
0.0
  0
LINE
  5
D3
  8
FRONT
 10
176.2
 20
54.7
 30
0.0
 11
176.2
 21
52.5
 31
0.0
  0
LINE
  5
D5
  8
FRONT
 10
237.3
 20
52.5
 30
0.0
 11
237.3
 21
55.5
 31
0.0
  0
LINE
  5
D6
  8
FRONT
 10
235.8
 20
57.0
 30
0.0
 11
224.8
 21
57.0
 31
0.0
  0
LINE
  5
D7
  8
FRONT
 10
223.3
 20
55.5
 30
0.0
 11
223.3
 21
52.5
 31
0.0
  0
LINE
  5
D8
  8
FRONT
 10
100.2
 20
51.1
 30
0.0
 11
107.2
 21
51.1
 31
0.0
  0
LINE
  5
D9
  8
FRONT
 10
108.7
 20
52.6
 30
0.0
 11
108.7
 21
58.3
 31
0.0
  0
LINE
  5
DA
  8
FRONT
 10
107.2
 20
59.8
 30
0.0
 11
100.2
 21
59.8
 31
0.0
  0
LINE
  5
DB
  8
FRONT
 10
98.7
 20
58.3
 30
0.0
 11
98.7
 21
52.6
 31
0.0
  0
LINE
  5
DC
  8
FRONT
 10
240.8
 20
50.25
 30
0.0
 11
253.6
 21
50.25
 31
0.0
  0
LINE
  5
DD
  8
FRONT
 10
255.1
 20
51.75
 30
0.0
 11
255.1
 21
64.25
 31
0.0
  0
LINE
  5
DE
  8
FRONT
 10
253.6
 20
65.75
 30
0.0
 11
240.8
 21
65.75
 31
0.0
  0
LINE
  5
DF
  8
FRONT
 10
239.3
 20
64.25
 30
0.0
 11
239.3
 21
51.75
 31
0.0
  0
INSERT
  5
E4
  8
0
  2
*X1
 10
0.0
 20
0.0
 30
0.0
  0
LINE
  5
E5
  8
FRONT
 10
38.8
 20
48.0
 30
0.0
 11
63.8
 21
48.0
 31
0.0
  0
LINE
  5
E6
  8
FRONT
 10
65.3
 20
46.5
 30
0.0
 11
65.3
 21
46.3
 31
0.0
  0
LINE
  5
E7
  8
FRONT
 10
63.8
 20
44.8
 30
0.0
 11
38.8
 21
44.8
 31
0.0
  0
LINE
  5
E8
  8
FRONT
 10
37.3
 20
46.3
 30
0.0
 11
37.3
 21
46.5
 31
0.0
  0
CIRCLE
  5
EB
  8
FRONT
 10
72.0
 20
53.0
 30
0.0
 40
2.0
  0
CIRCLE
  5
EF
  8
LEFT
 10
45.3
 20
209.5
 30
0.0
 40
8.0
  0
LINE
  5
F1
  8
LEFT
 10
66.5
 20
209.5
 30
0.0
 11
66.5
 21
209.5
 31
0.0
  0
CIRCLE
  5
F2
  8
LEFT
 10
66.0
 20
209.5
 30
0.0
 40
8.0
  0
LINE
  5
F6
  8
FRONT
 10
224.8
 20
51.0
 30
0.0
 11
235.8
 21
51.0
 31
0.0
  0
ARC
  5
F8
  8
FRONT
 10
224.8
 20
55.5
 30
0.0
 40
1.5
 50
90.0
 51
180.0
  0
ARC
  5
F9
  8
FRONT
 10
224.8
 20
52.5
 30
0.0
 40
1.5
 50
180.0
 51
270.0
  0
ARC
  5
FA
  8
FRONT
 10
235.8
 20
52.5
 30
0.0
 40
1.5
 50
270.0
 51
0.0
  0
ARC
  5
FE
  8
FRONT
 10
235.8
 20
55.5
 30
0.0
 40
1.5
 50
0.0
 51
90.0
  0
ARC
  5
FF
  8
FRONT
 10
219.7
 20
54.7
 30
0.0
 40
1.5
 50
0.0
 51
90.0
  0
ARC
  5
101
  8
FRONT
 10
219.7
 20
52.5
 30
0.0
 40
1.5
 50
270.0
 51
0.0
  0
ARC
  5
102
  8
FRONT
 10
177.7
 20
54.7
 30
0.0
 40
1.5
 50
90.0
 51
180.0
  0
ARC
  5
103
  8
FRONT
 10
177.7
 20
52.5
 30
0.0
 40
1.5
 50
180.0
 51
270.0
  0
ARC
  5
104
  8
FRONT
 10
240.8
 20
51.75
 30
0.0
 40
1.5
 50
180.0
 51
270.0
  0
ARC
  5
105
  8
FRONT
 10
240.8
 20
64.25
 30
0.0
 40
1.5
 50
90.0
 51
180.0
  0
ARC
  5
106
  8
FRONT
 10
253.6
 20
64.25
 30
0.0
 40
1.5
 50
0.0
 51
90.0
  0
ARC
  5
107
  8
FRONT
 10
253.6
 20
51.75
 30
0.0
 40
1.5
 50
270.0
 51
0.0
  0
ARC
  5
108
  8
FRONT
 10
86.5
 20
58.3
 30
0.0
 40
1.5
 50
90.0
 51
180.0
  0
ARC
  5
109
  8
FRONT
 10
93.5
 20
58.3
 30
0.0
 40
1.5
 50
0.0
 51
90.0
  0
ARC
  5
10A
  8
FRONT
 10
86.5
 20
52.6
 30
0.0
 40
1.5
 50
180.0
 51
270.0
  0
ARC
  5
10B
  8
FRONT
 10
93.5
 20
52.6
 30
0.0
 40
1.5
 50
270.0
 51
0.0
  0
ARC
  5
10C
  8
FRONT
 10
100.2
 20
52.6
 30
0.0
 40
1.5
 50
180.0
 51
270.0
  0
ARC
  5
10D
  8
FRONT
 10
100.2
 20
58.3
 30
0.0
 40
1.5
 50
90.0
 51
180.0
  0
ARC
  5
10E
  8
FRONT
 10
107.2
 20
58.3
 30
0.0
 40
1.5
 50
0.0
 51
90.0
  0
ARC
  5
10F
  8
FRONT
 10
107.2
 20
52.6
 30
0.0
 40
1.5
 50
270.0
 51
0.0
  0
ARC
  5
110
  8
FRONT
 10
63.8
 20
46.3
 30
0.0
 40
1.5
 50
270.0
 51
0.0
  0
ARC
  5
111
  8
FRONT
 10
63.8
 20
46.5
 30
0.0
 40
1.5
 50
0.0
 51
90.0
  0
ARC
  5
112
  8
FRONT
 10
38.8
 20
46.5
 30
0.0
 40
1.5
 50
90.0
 51
180.0
  0
ARC
  5
113
  8
FRONT
 10
38.8
 20
46.3
 30
0.0
 40
1.5
 50
180.0
 51
270.0
  0
ARC
  5
114
  8
RIGHT
 10
45.9
 20
157.7
 30
0.0
 40
1.5
 50
90.0
 51
180.0
  0
ARC
  5
115
  8
RIGHT
 10
45.9
 20
151.0
 30
0.0
 40
1.5
 50
180.0
 51
270.0
  0
ARC
  5
116
  8
RIGHT
 10
71.5
 20
151.0
 30
0.0
 40
1.5
 50
270.0
 51
0.0
  0
ARC
  5
117
  8
RIGHT
 10
71.5
 20
157.7
 30
0.0
 40
1.5
 50
0.0
 51
90.0
  0
ARC
  5
119
  8
RIGHT
 10
114.0
 20
161.0
 30
0.0
 40
1.5
 50
0.0
 51
90.0
  0
ARC
  5
11A
  8
RIGHT
 10
114.0
 20
151.0
 30
0.0
 40
1.5
 50
270.0
 51
0.0
  0
LINE
  5
11C
  8
RIGHT
 10
85.5
 20
161.0
 30
0.0
 11
85.5
 21
151.0
 31
0.0
  0
ARC
  5
11D
  8
RIGHT
 10
87.0
 20
161.0
 30
0.0
 40
1.5
 50
90.0
 51
180.0
  0
ARC
  5
11E
  8
RIGHT
 10
87.0
 20
151.0
 30
0.0
 40
1.5
 50
180.0
 51
270.0
  0
ENDSEC
  0
EOF
